Artists by letter: A B C D E F G H I J K L M N O P Q R S T U V W X Y Z 0-9

 
Jigsaw Puzzle Tab
Band: Rolling Stones
Song: Jigsaw Puzzle
Album: Beggars Banquet
Tabbed by dionysus85
[email protected]
___________________________________
This is one of my favourite Stones
songs and is alot of fun to play
___________________________________________________________________

Guitar 1 plays these chords throughout the song in standard tuning
Verse: B, A, F#, E
Chorus: E, F#, A, B, B, A, A, B, B
___________________________________________________________________

Guitar 2 is in "Open E" tuning with a slide
the 2nd guitar Break/solos are just variations of the intro
just do the 20/22 slide numerous times
these tabs are just rough guides, Brian never plays it the
same way twice so listen to the track and fiddle around with it :D
___________________________________________________________________

Guitar 2 Intro
E |------------------------------------------------|
B |--20/22------20/22--20/2220----2014----14/15--|
G#|--20/22------20/22--20/2220----2014----14/15--|
E |------------------------------------------------|
B |------------------------------------------------|
E |------------------------------------------------|

Guitar 2 Verses
E |--------------------------------------------|
B |--------------------------------------------|
G#|--/7----/7--/75----52---2---------------|
E |--/7----/7--/75----52---2-----------0---|
B |--------------------------------------0-----|
E |--------------------------------0--/4-------|

Chorus
E |-------------------------------------------------------------------|
B |---/12----12/14----14/17----17/19---197----75-----5/17----17/19--|
G#|---/12----12/14----14/17----17/19---197----75-----5/17----17/19--|
E |---/12----12/14----14/17----17/19---197----75-----5/17----17/19--|
B |---/12----12/14----14/17----17/19---197----75-----5/17----17/19--|
E |-------------------------------------------------------------------|

 
 
Rolling Stones - Jigsaw Puzzle Tab :: indexed at Ultimate Guitar.
Jigsaw Puzzle tabs @ 911Tabs

About the artist behind Jigsaw Puzzle Tab:

The Rolling Stones are an English band whose music was initially based on rhythm and blues and rock & roll. Formed in London and having their first success in the UK, they subsequently became popular in the US during the "British Invasion" in the early 1960s.[1]

The band formed in 1962 when original leader Brian Jones and pianist Ian Stewart were joined by singer Mick Jagger and guitarist Keith Richards, whose songwriting partnership later contributed to their taking the leadership role in the group. Bassist Bill Wyman and drummer Charlie Watts completed the early lineup. Ian Stewart was removed from the official lineup in 1963 but continued to work with the band as road manager and keyboardist until his death in 1985.

The band's early recordings were mainly covers of American blues and R&B songs. Their 1965 single "(I Can't Get No) Satisfaction" established the Rolling Stones as a premier rock and roll act.[2] Starting with their 1966 album Aftermath, the songs of Jagger and Richards, aided by the instrumental experimentation of Jones, expanded an always present stylistic flexibility. Jones died in 1969 shortly after being fired from the band and was replaced by Mick Taylor.[3] Taylor recorded five albums with The Rolling Stones before quitting in 1974. Former Faces guitarist Ronnie Wood stepped in and has been with the band ever since. Wyman left the Rolling Stones in 1993; bassist Darryl Jones, who is not an official band member, has worked with the group since 1994.

The Rolling Stones have released 22 studio albums in the UK (24 in the US), eight concert albums (nine in the US) and numerous compilations;[4][5] they have had 32 UK & US top-10 singles,[6] 43 UK & US top-10 albums between 1964 and 2008,[citation needed] and have sold more than 200 million albums worldwide.[7] 1971's Sticky Fingers began a string of eight consecutive studio albums at number one in the United States. In 1989 the Rolling Stones were inducted into the American Rock and Roll Hall of Fame, and in 2004 they were ranked number 4 in Rolling Stone magazine's 100 Greatest Artists of All Time.[8] They are also ranked as the number 2 artists of all time on Acclaimedmusic.net.[9] Their latest studio album, A Bigger Bang, was released in 2005 and followed by the highest-grossing tour in history, which lasted into late summer 2007. During the 1969 American tour, tour manager Sam Cutler introduced them as "The Greatest Rock and Roll Band in the World",[10] a title which has remained. Their image of unkempt and surly youth is one that many musicians still emulate.[10]

Indexed at Wikipedia.

Show us your talent, perform Jigsaw Puzzle Tab!

Here you can post a video or audio performance. Tell me more ...
Where can we find your performance? Tell me more ...
Your comment:
Please, log in to post your performance.