Artists by letter: A B C D E F G H I J K L M N O P Q R S T U V W X Y Z 0-9

 
Cut Ups Tab
Alright, so this is an awesome song from an amazing band (R.I.P, AGT).

I haven't tabbed the solo, but as soon as I do I'll put it up. 

Intro
e|-----|
B|-----|
G|-----|
D|11/--|
A|11/--|
E|-9/--|

Verse
e|-----------------------|
B|-----------------------|
G|-----------------------|
D|------------------6-6--|
A|333-8-7-66-3-6666-4-4--|
E|111-6-5-44-1-4444------|

Chorus (not perfect, I know, but close)
e|-------------------------------------------------------------|
B|-------------------------------------------------------------|
G|----------------------4--------------------------------------|
D|999----------------2-4---4--6-------4-44---------------------|
A|777-9-99-444-666--2-2---4--6-6--222-2-22-444-666--5-5-55-5-4-|
E|----7-77-222-444-0-----2--4-----000------222-444--3-3-33-3-2-|

Fast part
e|----------------------|
B|----------------------|
G|----------------------|
D|10-10-10-4-44-6-66-5--|
A|-8--8--8-6-66-4-44-3--|
E|---------4-44---------|

"The antidote has gone up in smoke..."
e|-------------6b--|
B|-------------6b--|
G|333333333333-----|
D|333333333333-----|
A|111111111111-----|
E|-----------------|



 
 
A Global Threat - Cut Ups Tab :: indexed at Ultimate Guitar.
Cut Ups tabs @ 911Tabs

About the artist behind Cut Ups Tab:

A Global Threat (AGT) was a Boston-based street punk band formed in 1997. They have released four full-length LPs as well as many 7" EPs and have toured extensively throughout the United States.

Indexed at Wikipedia.

Show us your talent, perform Cut Ups Tab!

Here you can post a video or audio performance. Tell me more ...
Where can we find your performance? Tell me more ...
Your comment:
Please, log in to post your performance.