Artists by letter: A B C D E F G H I J K L M N O P Q R S T U V W X Y Z 0-9

 
Monument Tab
----------------------------------------------------------------------------
		         Monument - A Day To Remember
----------------------------------------------------------------------------
Tabbed by: Oliver Kontis

Email: [email protected]

Tuning: C G C F A D

Thanks To 'NJSkyline' And 'shredXtilXdead For Corrections On This Tab

 -------
||Intro|| 
 -------

D|------------------------------------------|
A|------------------------------------------|
F|--7-7-7-9--9--9--7-7-7-9--9--9--9--9--9---|    x2
C|--9-9-9-10-10-10-9-9-9-10-10-10-10-10-10--|
G|------------------------------------------|
C|------------------------------------------|

D|---------------------------------------------------|
A|---------------------------------------------------|
F|---------------------------------------------------|
C|--3-3-3-3-3-3-3-3-3-3-3-3-5-5-5-5-5-5-5-5-5-5-5-5--|
G|--3-3-3-3-3-3-3-3-3-3-3-3-5-5-5-5-5-5-5-5-5-5-5-5--|
C|--3-3-3-3-3-3-3-3-3-3-3-3-5-5-5-5-5-5-5-5-5-5-5-5--|

D|-----------------------------------------------------------------------|
A|-----------------------------------------------------------------------|
F|--------9--9--9--------7-7-7-7/9--9------------------------------------|
C|--------10-10-10-------9-9-9-9/10-10-10-10-10-10-10-10-10-10-10-10-10--|
G|-------------------------------------10-10-10-10-10-10-10-10-10-10-10--|
C|--0-0-0----------0-0-0---------------10-10-10-10-10-10-10-10-10-10-10--|
 PM . . .          . . .

D|---------------------------------------------------|
A|---------------------------------------------------|
F|---------------------------------------------------|
C|--3-3-3-3-3-3-3-3-3-3-3-3-5-5-5-5-5-5-5-5-5-5-5-5--|
G|--3-3-3-3-3-3-3-3-3-3-3-3-5-5-5-5-5-5-5-5-5-5-5-5--|
C|--3-3-3-3-3-3-3-3-3-3-3-3-5-5-5-5-5-5-5-5-5-5-5-5--|

D|-----------------------------------------------------------------------|
A|-----------------------------------------------------------------------|
F|--------9--9--9--------7-7-7-7/9--9------------------------------------|
C|--------10-10-10-------9-9-9-9/10-10-10-10-10-10-10-10-10-10-10-10-10--|
G|-------------------------------------10-10-10-10-10-10-10-10-10-10-10--|
C|--0-0-0----------0-0-0---------------10-10-10-10-10-10-10-10-10-10-10--|
 PM . . .          . . .

 -------
||Verse||
 -------

D|---------------------------------------------------------------------|
A|---------------------------------------------------------------------|
F|---------------------------------------------------------------------|
C|---------------------------------------------------------------------|
G|---------------------------------------------------------------------|
C|--0-0-0---0-0-0---0-0-0-0-0-0-0-0---0-0-0---0-0-0---0-0-0-0-0-0-0-0--|
 PM . . .   . . .   . . . . . . . .   . . .   . . .   . . . . . . . .

D|---------------------------------------------------------------------|
A|---------------------------------------------------------------------|
F|---------------------------------------------------------------------|
C|---------------------------------------------------------------------|
G|---------------------------------------------------------------------|
C|--0-0-0---0-0-0---0-0-0-0-0-0-0-0---0-0-0---0-0-0--------------------|
 PM . . .   . . .   . . . . . . . .   . . .   . . .

D|--------------------------------------|
A|--------------------------------------|
F|------9-7-9---------9-7-9-------------| x 3  (while guitar 1 plays this,
C|--------------------------------------|       guitar 2 repeats the open
G|--------------------------------------|       string backing.)
C|--0-0-------0-0-0-0-------0-0-0-0-0-0-|
 PM . .       . . . .       . . . . . .

D|--------------------------------------|
A|--------------------------------------|
F|------9-7-9---------9-7-9-------------|
C|--------------------------------------|
G|--------------------------------------|
C|--0-0-------0-0-0-0-------x\\\\\-|
 PM . .       . . . .      (pick scrape)

 --------
||Chorus||
 --------

D|---------------------------------------------------|
A|---------------------------------------------------|
F|---------------------------------------------------|
C|--3-3-3-3-3-3-3-3-3-3-3-3-5-5-5-5-5-5-5-5-5-5-5-5--|
G|--3-3-3-3-3-3-3-3-3-3-3-3-5-5-5-5-5-5-5-5-5-5-5-5--|
C|--3-3-3-3-3-3-3-3-3-3-3-3-5-5-5-5-5-5-5-5-5-5-5-5--|

D|-----------------------------------------------------------------------|
A|-----------------------------------------------------------------------|
F|--------9--9--9--------7-7-7-7/9--9------------------------------------|
C|--------10-10-10-------9-9-9-9/10-10-10-10-10-10-10-10-10-10-10-10-10--|
G|-------------------------------------10-10-10-10-10-10-10-10-10-10-10--|
C|--0-0-0----------0-0-0---------------10-10-10-10-10-10-10-10-10-10-10--|
 PM . . .          . . .

D|---------------------------------------------------|
A|---------------------------------------------------|
F|---------------------------------------------------|
C|--3-3-3-3-3-3-3-3-3-3-3-3-5-5-5-5-5-5-5-5-5-5-5-5--|
G|--3-3-3-3-3-3-3-3-3-3-3-3-5-5-5-5-5-5-5-5-5-5-5-5--|
C|--3-3-3-3-3-3-3-3-3-3-3-3-5-5-5-5-5-5-5-5-5-5-5-5--|

D|-----------------------------------------------------------------------|
A|-----------------------------------------------------------------------|
F|--------9--9--9--------7-7-7-7/9--9------------------------------------|
C|--------10-10-10-------9-9-9-9/10-10-10-10-10-10-10-10-10-10-10-10-10--|
G|-------------------------------------10-10-10-10-10-10-10-10-10-10-10--|
C|--0-0-0----------0-0-0---------------10-10-10-10-10-10-10-10-10-10-10--|
 PM . . .          . . .

D|-------------------------------------------------------------------|
A|----3-5-3---3-5-3---3-5-3---3-5-3---3-5-3---3-5-3---3-5-3---3-5-3--|
F|--5-------5-------5-------5-------5-------5-------5-------5--------|
C|-------------------------------------------------------------------|
G|-------------------------------------------------------------------|
C|-------------------------------------------------------------------|

 ---------
||Verse 2||
 ---------

D|-------------------------------------------------------------------|
A|-------------------------------------------------------------------|
F|-------------------------------------------------------------------|  x4
C|--3-3-3-3-3-3-3-3-3-3-3-3-3-3-3-3-5-5-5-5-5-5-5-5-5-5-5-5-5-5-5-5--|
G|--3-3-3-3-3-3-3-3-3-3-3-3-3-3-3-3-5-5-5-5-5-5-5-5-5-5-5-5-5-5-5-5--|
C|--3-3-3-3-3-3-3-3-3-3-3-3-3-3-3-3-5-5-5-5-5-5-5-5-5-5-5-5-5-5-5-5--|
 PM . .   . .   .   . .   . .   .   . .   . .   .   . .   . .   .

 --------
||Chorus||
 --------

D|---------------------------------------------------|
A|---------------------------------------------------|
F|---------------------------------------------------|
C|--3-3-3-3-3-3-3-3-3-3-3-3-5-5-5-5-5-5-5-5-5-5-5-5--|
G|--3-3-3-3-3-3-3-3-3-3-3-3-5-5-5-5-5-5-5-5-5-5-5-5--|
C|--3-3-3-3-3-3-3-3-3-3-3-3-5-5-5-5-5-5-5-5-5-5-5-5--|

D|-----------------------------------------------------------------------|
A|-----------------------------------------------------------------------|
F|--------9--9--9--------7-7-7-7/9--9------------------------------------|
C|--------10-10-10-------9-9-9-9/10-10-10-10-10-10-10-10-10-10-10-10-10--|
G|-------------------------------------10-10-10-10-10-10-10-10-10-10-10--|
C|--0-0-0----------0-0-0---------------10-10-10-10-10-10-10-10-10-10-10--|
 PM . . .          . . .

D|---------------------------------------------------|
A|---------------------------------------------------|
F|---------------------------------------------------|
C|--3-3-3-3-3-3-3-3-3-3-3-3-5-5-5-5-5-5-5-5-5-5-5-5--|
G|--3-3-3-3-3-3-3-3-3-3-3-3-5-5-5-5-5-5-5-5-5-5-5-5--|
C|--3-3-3-3-3-3-3-3-3-3-3-3-5-5-5-5-5-5-5-5-5-5-5-5--|

D|-----------------------------------------------------------------------|
A|-----------------------------------------------------------------------|
F|--------9--9--9--------7-7-7-7/9--9------------------------------------|
C|--------10-10-10-------9-9-9-9/10-10-10-10-10-10-10-10-10-10-10-10-10--|
G|-------------------------------------10-10-10-10-10-10-10-10-10-10-10--|
C|--0-0-0----------0-0-0---------------10-10-10-10-10-10-10-10-10-10-10--|
 PM . . .          . . .

 -----------
||Breakdown|| (This Starts With - 20 Bucks Says You'll....)
 -----------

D|-----------------------------------------------------------------|
A|-----------------------------------------------------------------|
F|-----------------------------------------------------------------|
C|-3-3-3-3-3-3-3-3-3-3-3-3-3-3-3-3-5-5-5-5-5-5-5-5-5-5-5-5-5-5-5-5-|
G|-3-3-3-3-3-3-3-3-3-3-3-3-3-3-3-3-5-5-5-5-5-5-5-5-5-5-5-5-5-5-5-5-|
C|-3-3-3-3-3-3-3-3-3-3-3-3-3-3-3-3-5-5-5-5-5-5-5-5-5-5-5-5-5-5-5-5-|
PM . . . . . . . . . . . . . . . . . . . . . . . . . . . . . . . .

D|-----------------------------------------------------------------|
A|-----------------------------------------------------------------|
F|-----------------------------------------------------------------|
C|-7-7-7-7-7-7-7-7-7-7-7-7-7-7-7-7-5-5-5-5-5-5-5-5-5-5-5-5-5-5-5-5-|
G|-7-7-7-7-7-7-7-7-7-7-7-7-7-7-7-7-5-5-5-5-5-5-5-5-5-5-5-5-5-5-5-5-|
C|-7-7-7-7-7-7-7-7-7-7-7-7-7-7-7-7-5-5-5-5-5-5-5-5-5-5-5-5-5-5-5-5-|
PM . . . . . . . . . . . . . . . . . . . . . . . . . . . . . . . .

D|-----------------------------------------------------------------| )
A|-----------------------------------------------------------------| )
F|-----------------------------------------------------------------| )
C|-3-3-3-3-3-3-3-3-3-3-3-3-3-3-3-3-5-5-5-5-5-5-5-5-5-5-5-5-5-5-5-5-| )
G|-3-3-3-3-3-3-3-3-3-3-3-3-3-3-3-3-5-5-5-5-5-5-5-5-5-5-5-5-5-5-5-5-| )
C|-3-3-3-3-3-3-3-3-3-3-3-3-3-3-3-3-5-5-5-5-5-5-5-5-5-5-5-5-5-5-5-5-| )
                                                                    Guitar 2
D|-----------------------------------------------------------------| )
A|-----------------------------------------------------------------| )
F|-----------------------------------------------------------------| )
C|-7-7-7-7-7-7-7-7-7-7-7-7-7-7-7-7-5-5-5-5-5-5-5-5-5-5-5-5-5-5-5-5-| )
G|-7-7-7-7-7-7-7-7-7-7-7-7-7-7-7-7-5-5-5-5-5-5-5-5-5-5-5-5-5-5-5-5-| )
C|-7-7-7-7-7-7-7-7-7-7-7-7-7-7-7-7-5-5-5-5-5-5-5-5-5-5-5-5-5-5-5-5-| )

D|---------------------------------------|
A|---------------------------------------|
F|--9-10-9-7-9-10-9-7-9-10-9-7-9-10-9-7--|     x8
C|---------------------------------------|  Guitar 1
G|---------------------------------------|
C|---------------------------------------|

  -------
 ||Outro||  (This Starts With - And I'll Scream So Loud....)
  -------

D|--------------------------------------------------------------------------|
A|--------------------------------------------------------------------------|
F|--------------------------------------------------------------------------|
C|-------------------2----3-3-3---3-3-3--/--7-7-7-7-7-7-7-7-5-5-5-5-5-5-5-5-|  x2
G|-------------------2----3-3-3---3-3-3--/--7-7-7-7-7-7-7-7-5-5-5-5-5-5-5-5-|
C|-0-0-0---0-0-0--0--2----3-3-3---3-3-3--/--7-7-7-7-7-7-7-7-5-5-5-5-5-5-5-5-|
           

D|--------------------------------------------------------|
A|--------------------------------------------------------|
F|--------------------------------------------------------|
C|--3-----------7-----------10-----------5----------------|
G|--3-----------7-----------10-----------5----------------|
C|--3-----------7-----------10-----------5----------------|


----------------------------------------------------------------------------

 
 
A Day To Remember - Monument Tab :: indexed at Ultimate Guitar.
Monument tabs @ 911Tabs

Quick tip, so you can enjoy Monument Tab even more:

Try out the AutoScroller option ... It scrolls the page for you, so you can totally focus on nailing that solo. You can choose among different speeds using your mouse or your keyboard (keys 0, 1, 2 and 3).

Show us your talent, perform Monument Tab!

Here you can post a video or audio performance. Tell me more ...
Where can we find your performance? Tell me more ...
Your comment:
Please, log in to post your performance.