Artists by letter: A B C D E F G H I J K L M N O P Q R S T U V W X Y Z 0-9

Dear Juliet - If The Moon Fell Down Tonight Tab - Misc Unsigned Bands


 
Dear Juliet - If The Moon Fell Down Tonight Tab
 I am about 98% sure on this song, the chorus I am 100%, but a few notes in the other
I am a little shakey for, but here it is.

E-------0----0------0--------------0----0------0-----|
B----------0----------0---------------0----------0---|
G---0h2--------2--------2------0h2--------2--------2-|
D-2--------------2-----------2--------------2--------|
A----------------------------------------------------|
E----------------------------------------------------|

E-----------0---0-------0------------------0--0----0---|
B-------------0-----------0------------------0------0--|
G-----------------2---------2-------------------2----2-|
D-----2h4----------2-----------------0h2----------2----|
A---2------------------------------4-------------------|
E------------------------------------------------------|


E-----------0---0-------0-----|
B-------------0-----------0---|
G-----------------2---------2-|
D-----2h4----------2----------|        All of that twice
A---2-------------------------|
E-----------------------------|


 Chorus

E-----00-------00-------00----000------|
B-----00-------00-------00----000------|
G-----22-------44-------22----222------|
D-----22-------44-------22----222------|     x3
A--4--44----2--22----0--00----000------|
E--------------------------------------|


    All of this, figur out how much more of it. myspace me with your oppinion

myspace.com/tightdenimrules11

 
 
Misc Unsigned Bands - Dear Juliet - If The Moon Fell Down Tonight Tab :: indexed at Ultimate Guitar.
Dear Juliet - If The Moon Fell Down Tonight tabs @ 911Tabs

Quick tip, so you can enjoy Dear Juliet - If The Moon Fell Down Tonight Tab even more:

YourChords.com Guitar Chords and Tabs Archive is currently indexing over 240'000 songs from 21'000+ different artists. And new chords just keep on coming in, so you will surely never run out of them.

Show us your talent, perform Dear Juliet - If The Moon Fell Down Tonight Tab!

Here you can post a video or audio performance. Tell me more ...
Where can we find your performance? Tell me more ...
Your comment:
Please, log in to post your performance.