Artists by letter: A B C D E F G H I J K L M N O P Q R S T U V W X Y Z 0-9

 
Crash - Rock Will Never Die Tab
ROCK WILL NEVER DIE (new version)
By: 80'smetaladdict (A.K.A) Crash
played in the key of: E
Tuning: normal

INTRO
                  
e-----------------------------|
b-----------------------------|
g----x-2-4----4-x-2-----------|
d-2--x-2-4----4-x-2--2--------|
a-2--x-0-2----2-x-0--2--------|
E-----------------------------|

VERSE 1

e---------------------|
b---------------------|
g---x-2-4--4-x-2-4-xx-|8x
d-2-x-2-4--4-x-2-4-xx-|
a-2-x-0-2--2-x-0-2-xx-|
E---------------------|

PRE-CHORUS (do this on 8th time of verse) 

|-----------------------------------|
|-----------------------------------|
|---x-2-4--4--2---------------------|
|-2-x-2-4--4--2-2222222222222222222-|
|-2-x-0-2--2--0-2222222222222222222-|
|-----------------------------------|

CHORUS

e--------------------------------------|
b--------------------------------------|
g-4----2---------2----4----2-----------|2x
d-4----2----2-2--2----4----2--22222----|
a-2----0----2-2--0----2----0--22222----|
E--------------------------------------|


then go back and play VERSE 1 again 8x

then after VERSE 1 play the PRE-CHORUS & the CHORUS again (4x)

BRIDGE
                       ^
e---------------------------|
b---------------------------|
g-4-4----4-4----4-4----4-2~-|3x
d-4-4-2--4-4-2--4-4-2-------|
a-2-2-2--2-2-2--2-2-2-------|
E---------------------------|

(on third time)
|-------------------------------------------|
|-------------------------------------------|
|-do the same thing but make the end longer-|
|-------------------------------------------|
|-------------------------------------------|
|-------------------------------------------|

SOlO
                ^ ^  ^                                   ^^^                         
e---------------12--------------------------------------------------=
b-15b17-15b17~----15-12-------15------------------------------------=
g----------------------14b16~~--14b16~-12~----------9b11-7-7~-9p7---=
d-------------------------------------------/7-7-9~-------9------9~-=
a-------------------------------------------------------------------=
E-------------------------------------------------------------------=
             ^ ^             
=-------------------7------------------------------------=
=-9b10---------------10p7-7------------------------------=
=-9b10-7~-9~-7---7~------9-7-----------------5-----------=
=------------7-9-7~---------9~-----------7b8---7-5-------=
=---------------------------------/5--7~-----------7~~~~-=
=--------------------------------------------------------=
                              
=----------------------------------------------------------17-=
=-15b17-15b17~-15b17~-15p14p12----------------20b21-20b21~----=
=-------------------------------15-12~------------------------=
=--------------------------------------14~--------------------=
=-------------------------------------------------------------=
=-------------------------------------------------------------=

=------------------------------|
=-20-17---17-20b21~------------|
=------19~---------------------|
=-------------------x
=-------------------x
=------------------------------|

Both guitarists: chorus (2x) 

BOTH GUITARISTS: do verse 1 (4x)

Then both guitars do the OUTRO as the 4th time

OUTRO (this on the 4th of both guitarists)
e---------------------------------------------------=
b---------------------------------------------------=
g---x-2-4--4-x-2-4-----------------4----4----4------=
d-2-x-2-4--4-x-2-4------x
a-2-x-0-2--2-x-0-2------x
E---------------------------------------------------=
                           s. ps

=--------------------------------------|
=--------------------------------------|
=-44444444444444444444444444444------4-|
=-44444444444444444444444444444------4-|
=-22222222222222222222222222222------2-|
=--------------------------------------|


LEGEND

b=bend
r=release
p=pull off
h=hammer on
x
x>~=pick scrape up
~=vibrato
x=scratch
/=slide up
=slide down
s. ps=slow pick scrape
^=short note

 
 
Misc Unsigned Bands - Crash - Rock Will Never Die Tab :: indexed at Ultimate Guitar.
Crash - Rock Will Never Die tabs @ 911Tabs

Quick tip, so you can enjoy Crash - Rock Will Never Die Tab even more:

Try out the AutoScroller option ... It scrolls the page for you, so you can totally focus on nailing that solo. You can choose among different speeds using your mouse or your keyboard (keys 0, 1, 2 and 3).

Show us your talent, perform Crash - Rock Will Never Die Tab!

Here you can post a video or audio performance. Tell me more ...
Where can we find your performance? Tell me more ...
Your comment:
Please, log in to post your performance.