Artists by letter: A B C D E F G H I J K L M N O P Q R S T U V W X Y Z 0-9

 
Broken Pin - Now Is The Time Chords
"Now Is the Time" by Broken Pin
http://brokenpin.dmusic.com
http://brokenpin.tk

Intro: G C G D C G x4
Bridge: G

Verse:

G            C G   D         C  G
Now is the time (time to break away)
G            C G  D        C   G
Now is the time (I won't ever stay)
G            C G   D          C    G
Now is the time (seems like every day)
G            C G  D          C    G
Now is the time (symbolic waste away)


Prechorus: E A E A

Chorus:

             G                 D
And I don't care if you don't like us
           C                   G
'Cause we probably don't like you
G              D
Go on, try to stop us
             C               G
See, there's nothing you can do
G                 D         
Nothing's gonna change my mind
C            G
Hyperstatic overdrive
G          D         C
Epileptic suicide

Now is the time

Bridge: G

Verse 2: same as verse 1

Prechorus: E A E A

Chorus

Solo rhythm: same as verse 1

Solo:
e|---------------------------------------------------------
B|---------------------------------------------------------
G|---------------------------------------------------------
D|-9--7--54~----5--4---------9--7--54~---5--45/9~-------
A|---------------------53~--------------------------------
E|---------------------------------------------------------

e|---------------------------------------------------------
B|-12-10-8-7~--8-7-------12-10-8-7~--12-10-8-7-8-10-12-----
G|-----------------7-5~------------------------------------
D|---------------------------------------------------------
A|---------------------------------------------------------
E|---------------------------------------------------------

Chorus

Outro: same as intro

Special thanks to Anthony Holt for the solo ;)

 
 
Misc Unsigned Bands - Broken Pin - Now Is The Time Chords :: indexed at Ultimate Guitar.
Broken Pin - Now Is The Time tabs @ 911Tabs

Quick tip, so you can enjoy Broken Pin - Now Is The Time Chords even more:

YourChords.com Guitar Chords and Tabs Archive is currently indexing over 240'000 songs from 21'000+ different artists. And new chords just keep on coming in, so you will surely never run out of them.

Show us your talent, perform Broken Pin - Now Is The Time Chords!

Here you can post a video or audio performance. Tell me more ...
Where can we find your performance? Tell me more ...
Your comment:
Please, log in to post your performance.