Artists by letter: A B C D E F G H I J K L M N O P Q R S T U V W X Y Z 0-9

 
Blameshift - Rumination Tab
This song can be played with one guitar but the recording has two guitars in the chorus
and outro.  This was completed by the best of my ability any mistakes please point them 
bc i know their some but it sounds close playing it this way.
~Enoy~

Intro/Verse
Verse
Pre-Chorus
Chorus
Verse
Pre-Chorus
Chorus
Bridge 1 Part 1, Part 2
Bridge 2 Part 1, Part 2 (strumming # might be off in part 2)
Chorus
Bridge 1 part 1
Outro

Drop-C (CGCFAD) Low to High
Intro (clean) (00:00-00:26)
G1
D:---------------------------------------|
A:---------------------------------------|
F:-----2-2--------2--22--55-5-55-3333222-|
C:-----3-3------5--------77-7-77-5555333-|(x4)
G:---0--------3----------xx-x-xx-xxxxxxx-|
C:-0----0---3-----3-3-3--77-7-77-5555333-|

Play once after intro
G1 (00:26-00:29)
D:---------------------|
A:---------------------|
F:---------------------|
C:-8888-7777-5555-7777-|
G:-8888-7777-5555-7777-|
C:-8888-7777-5555-7777-|

Verse (Light distortion)
G1 (00:29-00:55)
D:-----------------------------------------|
A:-----------------------------------------|
F:-----2-2--------2--22--55-5-55-3333222---|
C:-----3-3------5--------77-7-77-5555333---|(x4)
G:---0--------3----------xx-x-xx-xxxxxxx---|
C:-0----0---3-----3-3-3--77-7-77-5555333---|

pre-chorus (00:56-01:02)
G1
D:---------------------|-----------------|
A:---------------------|-----------------|
F:---------------------|-----------------|
C:-8888-7777-5555-7777-|-888-777-555-777-|
G:-8888-7777-5555-7777-|-888-777-555-777-|
C:-8888-7777-5555-7777-|-888-777-555-777-|


chorus
G1      (01:02-01:27)              After Chorus (01:27-01:28)
D:---------------------     |-------------------------|
A:---------------------     |-------------------------|
F:---------------------     |-10h12-------------------|
C:-8-----000----- (x4)-     |-------10h12-------------|
G:-8(x16)000(x4)-------     |-------------10h12-------|
C:-8-----000-----------     |-------------------10h12-|

G2 (01:02-01:27)
D:----
A:----
F:-10-
C:-x--(x112) or something around that number
G:-8--
C:----

Verse (Light distortion)
G1 (01:29-01:55)
D:-----------------------------------------|
A:-----------------------------------------|
F:-----2-2--------2--22--55-5-55-3333222---|
C:-----3-3------5--------77-7-77-5555333---|(x4)
G:---0--------3----------xx-x-xx-xxxxxxx---|
C:-0----0---3-----3-3-3--77-7-77-5555333---|

Pre-chorus
G1         (01:55-02:01)
D:---------------------|-----------------|
A:---------------------|-----------------|
F:---------------------|-----------------|
C:-8888-7777-5555-7777-|-888-777-555-777-|
G:-8888-7777-5555-7777-|-888-777-555-777-|
C:-8888-7777-5555-7777-|-888-777-555-777-|


chorus
G1      (02:02-02:14)
D:---------------------|
A:---------------------|
F:---------------------|
C:-8-----000----- (x2)-|
G:-8(x16)000(x4)-------|
C:-8-----000-----------|

G2      (02:02-02:14)
D:----
A:----
F:-10-
C:-x--(x112) or something around that number
G:-8--
C:----

Bridge 1 Part 1 (02:14-02:33)
Breakdown (fifteen and twelve not one five one five....that would be ridiculous)
G1
D:-----------------------------------------------------------------------|
A:-----------------------------------------------------------------------|
F:--------10~-----------------10-------------10~---------------10h12-9---|
C:-151515-10~----151515-15-15---10----121212-10~--121212-12-12-10h12-10^-|
G:-151515-8-~----151515-15-15-----12--121212-8-~--121212-12-12-----------|
C:-151515--------151515-15-15---------121212------121212-12-12-----------|
    . . .         . . .  .  .          . . .       . . .  .  .
Bridge 1 Part 2
G1
D:---------------------------------------------------|
A:---------------------------------------------------|
F:--------10~-----------------10-------------10~-----|
C:-151515-10~----151515-15-15---10----121212-10~- 12-|
G:-151515-8-~----151515-15-15-----12--121212-8-~--12-|
C:-151515--------151515-15-15---------121212------12-|
    . . .         . . .  .  .          . . .       .
 After Bridge 1 part 2
G1
D:-------------------------|
A:-------------------------|
F:-10h12-------------------|
C:-------10h12-------------|(x4)
G:-------------10h12-------|
C:-------------------10h12-|

Bridge 2
Listen to the second part of this you'll hear the notes.
I might be wrong but theirs a weird fill in there.
G1       (02:33-02:45)
D:---------------------------------------------|
A:---------------------------------------------|
F:--7---7-9-10---10/121097-15-15-17-14--1---|4(x2)
C:--x---x-x-x-----x--x-x--x-x--x--x--x--x---x--|
G:--5---5-7-8-----8/108-75-13-13-15-12--12--|
C:---------------------------------------------|

G2
D:------------------------------------------|
A:------------------------------------------|
F:------------------------------------------|
C:-0-00-0-0-0---00-0-0-0---00-0-0-0-00-0-00-|(x2)
G:-0-00-0-0-0---00-0-0-0---00-0-0-0-00-0-00-|
C:-0-00-0-0-0---00-0-0-0---00-0-0-0-00-0-00-|
     ..         ..         ..       ..   ..

G1 Bridge 2 Part 2       (02:46-03:09)                                
D:------------------------------------------------------------------- |
A:------------------------------------------------------------------- |
F:-7~------------------------------10~------------------------------- |
C:-7~------------------------------10~------------------------------- |
G:-5~-------------------------------8~------------------------------- |
C:------------------------------------------------------------------- |
                                                                      |
                                                                      |
G2                                                                    |
D:------------------------------------------------------------------- |
A:------------------------------------------------------------------- |
F:------------------------------------------------------------------- |
C:-12-----12--12-----12--12-----12--15-----15--15-----15--15-----15-- |
G:-12(x7)-12--12(x7)-12--12(x3)-12--15(x7)-15--15(x7)-15--15(x3)-15-- |
C:-12-----12--12-----12--12-----12--15-----15--15-----15--15-----15-- |
    .          .          .          .          .          .          |x2
                                                                      |
                                                                      |
G1                                                                    |
D:------------------------------------------------------------------- |
A:------------------------------------------------------------------- |
F:-5~-------------------------------3~------------------------------- |
C:-5~-------------------------------3~------------------------------- |
G:-3~-------------------------------1~------------------------------- |
C:------------------------------------------------------------------- |
                                                                      |
G2                                  ----Dont play this 2nd time----   |
D:-----------------------------------------------------------------   |
A:-----------------------------------------------------------------   |
F:-----------------------------------------------------------------   |
C:-10-----10--10-----10--10-----10--8-----8--8-----8--8-----8------   |
G:-10(x7)-10--10(x7)-10--10(x3)-10--8(x7)-8--8(x7)-8--8(x3)-8------   |
C:-10-----10--10-----10--10-----10--8-----8--8-----8--8-----8------   |
    .          .          .         .        .        .               /

After Bridge 2 the second time play this (03:09)

Both Guitars Together
G1          G2
D:----      D:------                              D:----|
A:----      A:------                              A:----|
F:----      F:-10-10  or 1 guitar can play this   F:-10-|
C:-88-      C:-10-10                              C:-10-|
G:-88-      G:-8--8-                              G:-8--|
C:-88-      C:------                              C:-8--|
Both sound correct

chorus
G1      (03:12-03:38)
D:---------------------|
A:---------------------|
F:---------------------|
C:-8-----000----- (x2)-|
G:-8(x16)000(x4)-------|
C:-8-----000-----------|

G2
D:----
A:----
F:-10-
C:-x--(x112) or something around that number
G:-8--
C:----
       (03:29-03:45)
D:-----------------------------------------------------------------------|
A:-----------------------------------------------------------------------|
F:--------10~-----------------10-------------10~---------------10h12-9---|
C:-151515-10~----151515-15-15---10----121212-10~--121212-12-12-10h12-10^-|
G:-151515-8-~----151515-15-15-----12--121212-8-~--121212-12-12-----------|
C:-151515--------151515-15-15---------121212------121212-12-12-----------|
    . . .         . . .  .  .          . . .       . . .  .  .

G1      (03:45-04:04)
D:---------------------|
A:---------------------|
F:---------------------|
C:-8-----000----- (x2)-|
G:-8(x16)000(x4)-------|
C:-8-----000-----------|

G2
D:----
A:----
F:-10-
C:-x--(x112) or something around that number
G:-8--
C:----

Outro
G1       (04:05-End)
D:----------------------------------------------------|
A:----------------------------------------------------|
F:-----10~-----------14~------------------------------|
C:---8~------------12~--------------------------------|
G:-8~------------12~----------------------------------|
C:----------------------------------------------------|

G2
D:----------------------------------------------------|
A:----------------------------------------------------|
F:----------------------------------------10~------9~-|
C:-8~------------0~-----------8~----------10~------9~-|
G:-8~------------0~-----------8~----------8-~------7~-|
C:-8~------------0~-----------8~----------8-~------7~-|

 
 
Misc Unsigned Bands - Blameshift - Rumination Tab :: indexed at Ultimate Guitar.
Blameshift - Rumination tabs @ 911Tabs

Quick tip, so you can enjoy Blameshift - Rumination Tab even more:

After the registration (which takes just 10 seconds, remember?) you will be able to use your profile - your very own piece of YourChords.com.

Show us your talent, perform Blameshift - Rumination Tab!

Here you can post a video or audio performance. Tell me more ...
Where can we find your performance? Tell me more ...
Your comment:
Please, log in to post your performance.