Artists by letter: A B C D E F G H I J K L M N O P Q R S T U V W X Y Z 0-9

 
Bladder Stone - Malaman Mo Tab
Rhythm Chords:						Lead Chords:

e |--3----3----3----3---2---0---0--| e |--------------------------------|
B |--3----3----3----3---3---0---1--| B |--------------------------------|
G |--0----2----0----0---2---0---0--| G |--------------------------------|
D |--0----0----2----2---0---2---2--| D |------------5----5---7---9---5--|
A |--2----0----2----3---x---2---3--| A |--5----5----2----3---5---7---3--|
E |--3----2----0----x---x---0---0--| E |--3----2----0----0---0---0---0--|
     ^    ^    ^    ^   ^   ^   ^         ^    ^    ^    ^   ^   ^   ^
     G    F#   Em7  C9  D   Em  C         G    F#  Em7   C9  D   Em  C
     

Intro: G  F#  Em7  C9-D

Verse 1
(Rhythm pa lng)
G		 F#
Nandyan ka na naman
Em7		     C9    D
Padaan daan sa aking harapan
G     F#
 Di malaman ang gagawin
Em7				  C9	  D
Kung mahihiya ba o maglalambing

(pasok na ang lead bagsak lng)

(*)e |----------------------------|
   B |----------------------------|
   G |---12--11---9----7-5-7-----|
   D |----------------------------|
	 G    F#  Em7   C9-D	

G	F#
 Ewan ko ba
Em7			C9-D
Kung bakit ako ganito
G	  F#		  Em7
 Bakit ba hindi ako
    C9	   D
Makalapit sayo


Refrain:
(yng lead gagamit na ng chord nya)

Em	  D
Gusto kong ipagtapat sayo
Em	  D		  C
Ang nilalaman ng puso ko


Chorus:

G	F#		   Em7
Nais kong malaman mo
		 C9	  D
Na nandito lang ako
G	    F#		  Em7
 Maghihintay lamang sayo
	  C9	   D
Kahit abutin pa ng bagyo

(1st Adlib ng lead 2x) [G  F#  Em7   C9-D]

e |--------------------------------------------------------------------|
B |--------------------------------------------------------------------|
G |--1212-12-12---12h14---11-11-11-11---11h14---9-9-9-9---9h12---7-5-7|
D |--------------------------------------------------------------------|
     G			   F#			Em7		 C9-D

Verse 2(SAME CHORD PATTERN PATI LEAD)
(Rhythm lng din mna)

Kaninang umaga
Sa may hagdanan ika'y nagiisa
Ako'y lumapit sayo
Ngunit ika'y walang kibo

(Pasok ulit lead*)

Ewan ko ba
Kung bakit ka ganyan
Para bang ika'y walang
Pakialam

(Repeat Refrain)
(Repeat Chorus)

(Tapos ulit din yng 1st Adlib) +

2nd Adlib [ Em  D  Em  D  C  D]

e |--------------------------------------------------------|
B |--------------10---------------------------10-12-10-----|
G |---99-9-9--12--11-11-11-11-11----9-9-9-9----------12-11|
D |--------------------------------------------------------|
	   Em	        D	      Em	      D
e |---------------------------------------|
B |--13-13-13----13-15-13-12---12h13-12---|
G |--------------------------------------|
D |---------------------------------------|
	    C			  D
(Repeat Chorus)



Coda: (SAME CHORD PATTERN ng verses)
Mahal ko pangako sayo'y
Pagibig ko'y di magbabago
Nais kong malaman mo
Ang pagibig ko ay totoo

Nais kong malaman mo
Ohh ohhh huuuuu


(hi nga pala to all my Bandmates Kristian,Marty,Michael and Paolo)
Hi Guys Carlos 2 ([email protected])


 
 
Misc Unsigned Bands - Bladder Stone - Malaman Mo Tab :: indexed at Ultimate Guitar.
Bladder Stone - Malaman Mo tabs @ 911Tabs

Quick tip, so you can enjoy Bladder Stone - Malaman Mo Tab even more:

If you don't really know how to deal with "Absus4" chord and his equally confusing brothers, just put the mouse cursor over them and you will be shown a helpful chord diagram.

Show us your talent, perform Bladder Stone - Malaman Mo Tab!

Here you can post a video or audio performance. Tell me more ...
Where can we find your performance? Tell me more ...
Your comment:
Please, log in to post your performance.