Artists by letter: A B C D E F G H I J K L M N O P Q R S T U V W X Y Z 0-9

 
Arsen - Hypnotism Tab
ME AND MY BAND MADE THIS SONG WE ARE NOT SOME BIG NAME BAND BUT WE WANTED SOME
PEOPLE TO HEAR OUR MUSIC. SO PLEASE TRY OUT OUR STUFF OUR BAND NAME IS ARSEN.
I WILL HAVE SOME MORE POSTED UP SOON.

 |-5-7-----5-7-----4-6-----4-6----| 
 |-----6-5-----6-5-----5-4-----5-4|
 |--------------------------------|X2(the second time you play continuosly 
 |--------------------------------|  slow down and after the last pick of the
 |--------------------------------|  string stop playing for about one
 |--------------------------------|  second.)

 |-------------------------------| 
 |-------------------------------| (fig.#2 and fig.#3 are played very
 |-------------------------------|  quickly.)
 |---------------------7-------7-|
 |-----------------7-------7-----|
 |-5-5-5-5-5-5-5-5-5-5-5-5-5-5-5-|

 |-------------------------------|
 |-------------------------------|          |-----------------|
 |-------------------------------|          |-----------------|
 |---------------------8-------8-|          |-7-8-6-7-7-7-7-7-|
 |-----------------8-------8-----|          |-7-8-6-7-7-7-7-7-|
 |-6-6-6-6-6-6-6-6-6-6-6-6-6-6-6-|          |-5-6-4-5-5-5-5-5-|

 PLAY ORDER: FIG.#1 (X2) FIG.#2 FIG.#3 FIG.#2 FIG.#3 FIG.#4
(CONTINUE PLAYING FIG.2 FIG.3 FIG.2 FIG.3 FIG.4 PLAY IT 6 TIMES AND THAT IS
THE SONG.:) 

 
 
Misc Unsigned Bands - Arsen - Hypnotism Tab :: indexed at Ultimate Guitar.
Arsen - Hypnotism tabs @ 911Tabs

Quick tip, so you can enjoy Arsen - Hypnotism Tab even more:

You might want to transpose the song if it is too high or too low for you to sing. Just click the desired option while playing a song and all the chords will automatically be transponded into a new key.

Show us your talent, perform Arsen - Hypnotism Tab!

Here you can post a video or audio performance. Tell me more ...
Where can we find your performance? Tell me more ...
Your comment:
Please, log in to post your performance.