Artists by letter: A B C D E F G H I J K L M N O P Q R S T U V W X Y Z 0-9

 
Aisle 14 - Taken Tab
--------------------------------------------------------------------------------|
          Taken---------------- Aisle 14----------------------------------------|
--------------------------------------------------------------------------------|
Music Written By Anthony Bonnette and Gary Roesser
Tabbed by: Gary Roesser
Email:[email protected]
!00% Accurate

Tuning: Standard

(intro) acoustic


E|----------3-----------------------3----------------------------------------|
B|----------3-----------------------3----------------------------------------|
G|------0-----0----0------------0----0---0-----------------------------------|
D|----0----------0------------0---------0------------------------------------|
A|--3-----------------------2------------------------------------------------|
E|---------------------------------------------------------------------------|

e|---------3-----------------------3------------------------------------------|
B|---------3-----------------------0------------------------------------------|
G|---------0---0---0-------------0---0---0------------------------------------|
D|------0--------0-------------0--------0-------------------------------------|
A|----2----------------------2------------------------------------------------|
E|--3----------------------3--------------------------------------------------| x2
acoustic plays same diagram strumming the chords after the verses are sung twice  
takes over the rift for the solo

(Lead plays intro through all verses)

Solo

e|---------------------------------------------------------------------------|
B|---------------------------------------------------------12----------------|
G|----------------------------------------------------12------12-------12----|
D|------------------------------------------------12---------------12--------|
A|--16----16-161615------------15/16---------------------------------------|
E|---------------------16----16----------------------------------------------|

e|---------------------------------------------------------------------------|
B|---------------------------------------------------------------------------|
G|---------------------------------------------------------------------------|
D|--16------16-16----1615---------------------------------------------------|
A|--------------------------------16---16b-----------------------------------|
E|---------------------------------------------------------------------------|


Lead plays intro for the last time and slows it down for the outro

| / Slide up
|  Slide down
| H hammer-on
| P pull-off
| ~ Vibrato
| + Harmonic
| X Mute note
=========================================================================

 
 
Misc Unsigned Bands - Aisle 14 - Taken Tab :: indexed at Ultimate Guitar.
Aisle 14 - Taken tabs @ 911Tabs

Quick tip, so you can enjoy Aisle 14 - Taken Tab even more:

You might want to transpose the song if it is too high or too low for you to sing. Just click the desired option while playing a song and all the chords will automatically be transponded into a new key.

Show us your talent, perform Aisle 14 - Taken Tab!

Here you can post a video or audio performance. Tell me more ...
Where can we find your performance? Tell me more ...
Your comment:
Please, log in to post your performance.