Artists by letter: A B C D E F G H I J K L M N O P Q R S T U V W X Y Z 0-9

 
Aggressive Audio - Lingin Chords
I have posted the chords for this song... but it seems to me that they wanted the tab
the whole song......so...humana jd...hekhek.. pls vote... sak2 lagi ni...

Friendster: [email protected]
Website:    www.jezrelmarvin.tk

Intro: A-E-F#m-D

      A                        E
e|------------7--5--------|--------4--5--5/7--5-|
B|--------5--------5---5--|------5--5-----------|
G|------6--6---------6----|----4----------------|
D|----7-------------------|---------------------|
A|------------------------|---------------------|
E|------------------------|---------------------|

      F#m                  D
e|---------5---7-5------|------2---3-2-----|
B|-------7--7------7----|----3---3-----3---|
G|-----6----------------|--2---------------|
D|----------------------|------------------|
A|----------------------|------------------|
E|----------------------|------------------|


******************************Verse1:***************************************
      A                        E
e|------------7--5--------|--------4--5--5/7--5-|
B|--------5--------5---5--|------5--5-----------|
G|------6--6---------6----|----4----------------|
D|----7-------------------|---------------------|
A|------------------------|---------------------|
E|------------------------|---------------------|
A                        E
Ang among balay.(lingin..Ang among atop.(lingin)


       F#m                 D
e|---------5---7-5------|------2---3-2-----|
B|-------7--7------7----|----3---3-----3---|
G|-----6----------------|--2---------------|
D|----------------------|------------------|
A|----------------------|------------------|
E|----------------------|------------------|
F#m                        D
Ang among bintana.(lingin..Ang among pultahan.(lingin)


      A                        E
e|------------7--5--------|--------4--5--5/7--5-|
B|--------5--------5---5--|------5--5-----------|
G|------6--6---------6----|----4----------------|
D|----7-------------------|---------------------|
A|------------------------|---------------------|
E|------------------------|---------------------|
A                          E
Ang among kwarto.(lingin)..Ang among bong bong.(lingin)


       F#m                 D          E
e|---------5---7-5------|------2----------4-|
B|-------7--7------7----|----3----------5---|
G|-----6----------------|--2--------2/4-----|
D|----------------------|-------------------|
A|----------------------|-------------------|
E|----------------------|-------------------|
F#m                D    E
Ang among hagdanan..hooo...

**************************Pre-chorus:***************************************

      A                        E
e|------------7--5--------|--------4--5--5/7--5-|
B|--------5--------5---5--|------5--5-----------|
G|------6--6---------6----|----4----------------|
D|----7-------------------|---------------------|
A|------------------------|---------------------|
E|------------------------|---------------------|
           A        E
Pwerting lingina.....haa haa

       F#m                 D
e|---------5---7-5------|------2---3-2-----|
B|-------7--7------7----|----3---3-----3---|
G|-----6----------------|--2---------------|
D|----------------------|------------------|
A|----------------------|------------------|
E|----------------------|------------------|
 F#m             D
haa haa..........hoo

******************************Verse2:***************************************
(same plucking pattern for verse)

A                         E
Ang among lamisa.(lingin..Ang among bangku.(lingin)

F#m                          D
Ang among aparador.(lingin)..Ang among lantay.(lingin)

A                           E
Ang among kabinit.(lingin)..Ang among takori.(lingin)

F#m                D   E
Ang among kutsilyo hoooo.......


***************************Pre-chorus2:*************************************
Strum chords:

A x765xx
E xx245x
F#m xx4675
D x57775
     A        E       F#m      D
e|--------|--------|--------|---5----|
B|---5----|---9----|---11---|---7----|
G|---6----|---9----|---11---|---7----|
D|---7----|---9----|---11---|---7----|
A|--------|---7----|---9----|---5----|
E|--------|--------|--------|--------|
            A       E        F#m          D
Pwerting lingina.....haa haa haa haa.....hoo

******************************chorus***************************************

     D        E
e|---5--------7----|
B|---7--------9----|
G|---7--------9----|
D|---7--------9----|
A|---5--------7----|
E|-----------------|
(Strum)
D             E
Ang among chorus

      A              E             F#m
e|---------------|--------------|-----------9-----------|
B|--------5------|-------9------|--------10---10---10---|
G|------6--6-----|-----9---9----|-----11---------11--11-|
D|----7----------|---9----------|--11-------------------|
A|---------------|--------------|-----------------------|
E|---------------|--------------|-----------------------|
A       E       F#m
Lingin lang gihapon

     D        E
e|---5--------7----|
B|---7--------9----|
G|---7--------9----|
D|---7--------9----|
A|---5--------7----|
E|-----------------|
(Strum)
D             E
Kay wala nay laing lyrics

     A              E             F#m
e|---------------|--------------|-----------9-----------|
B|--------5------|-------9------|--------10---10---10---|
G|------6--6-----|-----9---9----|-----11---------11--11-|
D|----7----------|---9----------|--11-------------------|
A|---------------|--------------|-----------------------|
E|---------------|--------------|-----------------------|
A       E       F#m
Lingin lang ghapon

     D        E
e|---5--------7----|
B|---7--------9----|
G|---7--------9----|
D|---7--------9----|
A|---5--------7----|
E|-----------------|
(Strum and do plucking on the lead strings for each chord)


          D     E           (repeat intro)
Kay ang atong kinabuhi lingin

******************************Verse3:***************************************
(same plucking pattern for verse)

A                       E
Ang akong ulo.(lingin)..Ang akong mata.(lingin)

F#m                       D
Ang akong ilong.(lingin)..Ang akong baba.(lingin)

A                          E
Ang akong dughan.(lingin)..Ang akong pusod.(lingin)

F#m               D   E
Ang akong periko..hoooo.


Pre-chorus....
Chorus...
Interlude: A-E-F#m-D

Chorus....

Do these chords for final chorus:


D x577xx
E x799xx
A 577xxx
F#m x9-11-11-x-x


******************************Verse4:***************************************(same
pattern for verse)

D           E         A
kay akong kinabuhi lingin
D                  E         A-E-F#m-D
kitang tanan sa kalibutan lingin


(first post)



Sak2 ni mga bisrocker fans!!!
nindot ni nga kanta... cool lyrics...standard tuning eadgbe.,.
mas nindot paminawon kung i-plucking
paminaw lang sa kanta pra sa timing... bisrock rules!!!!

Intro: A-E-F#m-D
--------------verse 1---------------
A                        E
Ang among balay.(lingin..Ang among atop.(lingin)

F#m                        D
Ang among bintana.(lingin..Ang among pultahan.(lingin)

A                          E
Ang among kwarto.(lingin)..Ang among bong bong.(lingin)

F#m                D    E
Ang among hagdanan..hooo...


------------Pre-chorus:--------------
             A       E        F#m          D
Pwerting lingina.....haa haa haa haa.....hoo


----------------verse 2-------------------:

A                         E
Ang among lamisa.(lingin..Ang among bangku.(lingin)

F#m                          D
Ang among aparador.(lingin)..Ang among lantay.(lingin)

A                           E
Ang among kabinit.(lingin)..Ang among takori.(lingin)

F#m                D   E
Ang among kutsilyo hoooo.......


----------(repeat pre-chorus)--------------


--------------chorus-----------------
D             E
Sng among chorus
A       E       F#m
Lingin lang gihapon
D             E
Kay wala nay laing lyrics
A       E       F#m
Lingin lang ghapon
          D     E           A-E-F#m-D
Kay ang atong kinabuhi lingin


-------------------verse 3-------------

A                       E
Ang akong ulo.(lingin)..Ang akong mata.(lingin)

F#m                       D
Ang akong ilong.(lingin)..Ang akong baba.(lingin)

A                          E
Ang akong dughan.(lingin)..Ang akong pusod.(lingin)

F#m               D   E
Ang akong periko..hoooo.

Pre-chorus....
Chorus...
Interlude: A-E-F#m-D
Chorus....

---------Verse 4-----------

D           E         A
kay akong kinabuhi lingin
D                  E         A-E-F#m-D
kitang tanan sa kalibutan lingin


vsit my website and sign my guestbook:

www.jezrelmarvin.tk
www.geocities.com/jezrelmarvin


friendster acct: [email protected]

link to the band:
http://profile.myspace.com/index.cfm?fuseaction=user.viewprofile&friendid=52852647

 
 
Misc Unsigned Bands - Aggressive Audio - Lingin Chords :: indexed at Ultimate Guitar.
Aggressive Audio - Lingin tabs @ 911Tabs

Quick tip, so you can enjoy Aggressive Audio - Lingin Chords even more:

Try out the AutoScroller option ... It scrolls the page for you, so you can totally focus on nailing that solo. You can choose among different speeds using your mouse or your keyboard (keys 0, 1, 2 and 3).

Show us your talent, perform Aggressive Audio - Lingin Chords!

Here you can post a video or audio performance. Tell me more ...
Where can we find your performance? Tell me more ...
Your comment:
Please, log in to post your performance.