Artists by letter: A B C D E F G H I J K L M N O P Q R S T U V W X Y Z 0-9

Aggressive Audio - Liar Evil Tab (ver 2) - Misc Unsigned Bands


 
Aggressive Audio - Liar Evil Tab
Title: Liar Evil
As popularized by: Aggressive Audio
Genre: BisRock ..hehe..
Tabbed by: Tristan Mark M. Licayan
School: Cebu Sci Hi (3rd yr)

Shoutout to infringe...as usual...oh yeah, kang DATO pud...hehe=)
BisRock Rocks!!....support bisrock...

Intro:
e|-------------------0-----0---5-9-5-4-------------4~-----------------|
B|-----10-10-9~----2-----2---7---------7-5-4-2h4---5~-4h5-4-----------|
G|-----9--9--9~--4-----4-------------------------4-4~-------4-4h6-4-4-|
D|-------------------------------------------------6~-----------------|
A|-------------------------------------------------4~-----------------|
E|-0~-----------------------------------------------------------------|

e|--------------11h12-11---------9---------------------------4~-----4---------------2~-2-----|
B|-----10-10-9~----------12-10-9---10-9----------------------5~-4h5---5-4-----------2~---2---|
G|-----9--9--9~-------------------------11-9-----------9-----4~-----------4-4h6-4-4-4~-----4-|
D|-------------------------------------------11-9------11-9~-6~---------------------4~-------|
A|------------------------------------------------11-9-------4~---------------------2~-------|
E|-0~----------------------------------------------------------------------------------------|

e|----7-----------------------------------|
B|------9--7~---9---------5-------5-------|
G|-9~------8~---9--9------6h7-6-----6-----|
D|-9~------9~-9-11---11-9-5-----7-----7---|
A|-7~------9~---11--------7-------------0-|
E|---------7~---9---------5---------------|

e|----7-----------------------------------|
B|------9--7~---9---------5-------5-------|
G|-9~------8~---9--9------6h7-6-----6-----|
D|-9~------9~---11---11-9-5-----7-----7---|
A|-7~------9~---11--------7-------------0-|
E|---------7~---9---------5---------------|


Verse1: E-B-C#m7-A
e|----7-----------------------------------|
B|------9--7~---9---------5-------5-------|
G|-9~------8~---9--9------6h7-6-----6-----|
D|-9~------9~-9-11---11-9-5-----7-----7---| 4x
A|-7~------9~---11--------7-------------0-|
E|---------7~---9---------5---------------|


Pre-Refrain (kung naa gani ingun-ana..hehe): F#m-B-A
e|-2-------------7----------5~---------12~--|
B|-2-------------7----------5~---------------|
G|-2-------------8----------6~---------------|
D|-4-------------9----------7~---------------|
A|-4-------------9----------7~---------------|
E|-2-------------7----------5~---------------|
   Pagkahuman... nangiki... ngipon...


Refrain: C#m-B-A-B (strum down-up)
e|-------------------------------|
B|-------------------------------|
G|-------------------------------|
D|-11-11x---9-9x---7-7~----9-9-9-|
A|-11-11x---9-9x---7-7~----9-9-9-|
E|-9--9-x---7-7x---5-5~----7-7-7-|

e|--------------------------------------------|
B|--------------------------------------------|
G|--------------------------------------------|
D|-11-11x---9-9x---7-7~----9-9-9-9-9-9-9-9-9x-|
A|-11-11x---9-9x---7-7~----9-9-9-9-9-9-9-9-9x-|
E|-9--9-x---7-7x---5-5~----7-7-7-7-7-7-7-7-7x-|


Chorus1: E-B-C#m-A-E-B-A-B
e|------------------------------------------------------------------------------------------|
B|------------------------------------------------------------------------------------------|
G|-9--9-9-9--------------------------------9--9-9-9-----------------------------------------|
D|-9--9-9-9-9--9-9-9-11--11-11-11-7--7-7-7-9--9-9-9-9--9-9-9-7--7-7-7-9b10r9b10r9b10r9b10r9-|
A|-7--7-7-7-9--9-9-9-11--11-11-11-7--7-7-7-7--7-7-7-9--9-9-9-7--7-7-7-9b10r9b10r9b10r9b10r9-|
E|----------7--7-7-7-9---9--9--9--5--5-5-5----------7--7-7-7-5--5-5-5-7b8-r7b8-r7b8-r7b8-r7-|

Pre-Verse: E-B-C#m7-A
e|----7-----------------------------------|
B|------9--7~---9---------5-------5-------|
G|-9~------8~---9--9------6h7-6-----6-----|
D|-9~------9~-9-11---11-9-5-----7-----7---| 2x
A|-7~------9~---11--------7-------------0-|
E|---------7~---9---------5---------------|

Verse2:E-B-C#m7-A
e|----7-----------------------------------|
B|------9--7~---9---------5-------5-------|
G|-9~------8~---9--9------6h7-6-----6-----|
D|-9~------9~-9-11---11-9-5-----7-----7---| 4x
A|-7~------9~---11--------7-------------0-|
E|---------7~---9---------5---------------|


Pre-Refrain (kung naa gani ingun-ana..hehe): F#m-B-A
e|-2------------7----------5~-------12~--|
B|-2------------7----------5~-------------|
G|-2------------8----------6~-------------|
D|-4------------9----------7~-------------|
A|-4------------9----------7~-------------|
E|-2------------7----------5~-------------|
   Kaluoy sa... celfone... TY na...


Refrain: C#m-B-A-B (strum down-up)
e|-------------------------------|
B|-------------------------------|
G|-------------------------------|
D|-11-11x---9-9x---7-7~----9-9-9-|
A|-11-11x---9-9x---7-7~----9-9-9-|
E|-9--9-x---7-7x---5-5~----7-7-7-|

e|--------------------------------------------|
B|--------------------------------------------|
G|--------------------------------------------|
D|-11-11x---9-9x---7-7~----9-9-9-9-9-9-9-9-9x-|
A|-11-11x---9-9x---7-7~----9-9-9-9-9-9-9-9-9x-|
E|-9--9-x---7-7x---5-5~----7-7-7-7-7-7-7-7-7x-|


Chorus2: E-B-C#m-A-E-B-A-B
e|------------------------------------------------------------------------|
B|------------------------------------------------------------------------|
G|-9--9-9-9--------------------------------9--9-9-9-----------------------|
D|-9--9-9-9-9--9-9-9-11--11-11-11-7--7-7-7-9--9-9-9-9--9-9-9-7--7-7-7-9-9-|
A|-7--7-7-7-9--9-9-9-11--11-11-11-7--7-7-7-7--7-7-7-9--9-9-9-7--7-7-7-9-9-|
E|----------7--7-7-7-9---9--9--9--5--5-5-5----------7--7-7-7-5--5-5-5-7-7-|


Solo: (chords same as chorus)
e|---------------------12---11---9---7------------------------7---7-9-10b11-9-|
B|------------------------9----9---9---9-10-9-7-5-7h9-7-5-5~----9-------------|
G|----------9-11-9-11b--------------------------------------------------------|
D|-7/9-9-11-------------------------------------------------------------------|
A|----------------------------------------------------------------------------|
E|----------------------------------------------------------------------------|

e|-11/-12-11-9----9------------------------------------------------------------------|
B|-------------12---12-10-9-10-9-10-9-7---------------------------------12*-----------|
G|--------------------------------------9-6-9-------------------6-9-6-9-----6-9-6-----|
D|--------------------------------------------7-7-7-9-7-9-11--9-------------------9-7-|
A|------------------------------------------------------------------------------------|
E|------------------------------------------------------------------------------------|
PM                                            . . . . . . .
e|--------------------------------------------------------------------------|
B|-----------------9-9------------------------------------------------------|
G|---------9-6-8h9-----9/11-119-98-86-6/-119-98-86-6/-119-98-86-6/-|
D|-9-7-7-9------------------------------------------------------------------|
A|--------------------------------------------------------------------------|
E|--------------------------------------------------------------------------|

e|----------------------------------------------------------------------|
B|---------------------7-4h5p4-----5-2h4p2----------------------------|
G|-8/9-9-11-9-8-6--6-6----------4-4--------------8-6--------------------|
D|-----------------6-6----------4-4----------7-7-----9-7-9-7-9-7-6-4----|
A|-----------------4-4----------2-2----------7-7---------------------7--|
E|-------------------------------------------5-5------------------------|

e|------------------------------------------------------|
B|-----7-4h5p4-----5-2h4p2----------------------------|
G|-6-6----------4-4--------------8-6--------------------|
D|-6-6----------4-4----------7-7-----9-7-9-7-9-7-6-4----|
A|-4-4----------2-2----------7-7---------------------7--|
E|---------------------------5-5------------------------|

Bridge: C#m-B-A--C#m-B-A-B
e|----------------------------------------------------------------------------------|
B|----------------------------------------------------------------------------------|
G|--------9-9-8-8-6-6------8-8-6-6----------9-9-8-8-6-6-----------------------------|
D|-11-11x-------------9-9x---------9-9----7-------------9-9-7-7-6-6-7-7-9-9---------|
A|-11-11x-------------9-9x----------------7-----------------------------------------|
E|-9--9-x-------------7-7x----------------5-(continue strumming for rhythm guitar)--|
   Naay bay tikasan..              ...na mutug-an
e|-------------------------------------------------------------------------------------------|
B|-------------------------------------------------------------------------------------------|
G|--------9-9-8-8-6-6------8-8-6-6-----------------------------------------------------------|
D|-11-11x-------------9-9x---------9-9----7-7-7-7-7-7-7-7-7-7-7-7-7-7-7-7-9-9-9-9-9-9-9-9-9x-|
A|-11-11x-------------9-9x----------------7-7-7-7-7-7-7-7-7-7-7-7-7-7-7-7-9-9-9-9-9-9-9-9-9x-|
E|-9--9-x-------------7-7x----------------5-5-5-5-5-5-5-5-5-5-5-5-5-5-5-5-7-7-7-7-7-7-7-7-7x-|
   Naay bay kawayan..              ...na mutug-an                         ...aaahhh...


Chorus3: E-B-C#m-A-C#m-B-A-E-B-C#m-A-C#m-B-A-B
e|------------------------------------------------------------------------------------|
B|------------------------------------------------------------------------------------|
G|------------9-----------------------------------------------------------------------|
D|---(break)--9-9--9-9-9-11--11-11-11-7--7-7-7-11--11-11-11-9--9-9-9-7--7-7-7-7-7-7-7-|
A|------------7-9--9-9-9-11--11-11-11-7--7-7-7-11--11-11-11-9--9-9-9-7--7-7-7-7-7-7-7-|
E|--------------7--7-7-7-9---9--9--9--5--5-5-5-9---9--9--9--7--7-7-7-5--5-5-5-5-5-5-5-|
..bakakon ka..  

e|-----------------------------------------------------------------------------------|
B|-----------------------------------------------------------------------------------|
G|-9--9-9-9------------------------------------------9-------------------------------|
D|-9--9-9-9-9--9-9-9-11--11-11-11-7--7-7-7-(break)11-9-11-9--9-9-9-7--7-7-7-9--9-9-9-|
A|-7--7-7-7-9--9-9-9-11--11-11-11-7--7-7-7--------11-7-11-9--9-9-9-7--7-7-7-9--9-9-9-|
E|----------7--7-7-7-9---9--9--9--5--5-5-5--------9----9--7--7-7-7-5--5-5-5-7--7-7-7-|


Outro:
e|----7-----------------------------------|
B|------9--7~---9---------5-------5-------|
G|-9~------8~---9--9------6h7-6-----6-----|
D|-9~------9~-9-11---11-9-5-----7-----7---|
A|-7~------9~---11--------7-------------0-|
E|---------7~---9---------5---------------|

e|----7--------------------------------------|
B|------9--7~---9---------5-------5----------|
G|-9~------8~---9--9------6h7-6-----6--------|
D|-9~------9~-9-11---11-9-5-----7-----7------|
A|-7~------9~---11--------7-------------0----|
E|---------7~---9---------5---------------0~-|


----------------------------------
Lyrix:
Gigutom si dodong john john nangita og 
Kan-anan aron mahuwasan ang naghilab niyang tiyan 
Ni order og paklay tawgi og barbekyong atay 
Lima ka platong kan-on og usa ka bandihadong bihon.. 

Pagkahuman og kaon nanghingiki sa iyang ngipon 
Pagpaningil sa tindera nikalit lang og drama-drama 
Pahilahiklak sa lamesa bisag deli madalag artista 
Kay gikawat iyang pitaka. 

Bakakon ka! liar evil ka! 
Bakakon ka! liar evil ka! 

Ang gwapo na boknoy sige lag suroy-suroy. 
Buntag udto hapon ang pamahaw tingbon sa panihapon 
Way lain buhaton mag stambay kay manglabni og celpon 
Deli ra ba mokuha kung ang pon nimo way kamera 

Kaluoy sa dalaga celphone niya tiway na 
Gipangita siya ni spo1 juan way kalibutan 
Hasta niya gyud niyang kurata kay siya gipangutana 
Ingon siya wa ko kaila 

Bakakon ka! liar evil ka! 
Bakakon ka! liar evil ka! 
Bakakon ka! liar evil ka! 
Bakakon ka! liar evil ka! 

Naa bay tikasan na motug-an 
Naa bay kawatan na motug-an 

Bakakon ka! liar evil ka! 
Bakakon ka! liar evil ka! 
Bakakon ka! liar evil ka! 
Bakakon ka! liar evil ka!
----------------------------------

Legend
h = hammer
b = bend
r = release (right after bend)
 = slide up
/ = slide down
~ = let ring
x = mute (in this case, lessen grip after strum) 



 
 
Misc Unsigned Bands - Aggressive Audio - Liar Evil Tab :: indexed at Ultimate Guitar.
Aggressive Audio - Liar Evil tabs @ 911Tabs

Quick tip, so you can enjoy Aggressive Audio - Liar Evil Tab even more:

After the registration (which takes just 10 seconds, remember?) you will be able to use your profile - your very own piece of YourChords.com.

Show us your talent, perform Aggressive Audio - Liar Evil Tab!

Here you can post a video or audio performance. Tell me more ...
Where can we find your performance? Tell me more ...
Your comment:
Please, log in to post your performance.