Artists by letter: A B C D E F G H I J K L M N O P Q R S T U V W X Y Z 0-9

 
Hey Joe Tab
----------------------------------------------------------------

    JIMI HENDRIX - HEY JOE. Released as a single with STONE FREE 
                   as B side on 16th December 1966.

----------------------------------------------------------------

    Tabbed by:PJVillanueva







Hey Joe, where you goin' with that gun in your hand
Hey Joe, i said where you goin' with that gun in your hand, oh
I'm goin' down to shoot my old lady
You know i caught her messin' 'round with another man
Yeah, i'm goin' down to shoot my old lady
You know i caught her messin' 'round with another man
Huh! and that ain't too cool
Huh hey Joe, I heard you shot your mamma down     
You shot her down now
Hey Joe, I heard you shot your lady down
You shot her down in the groud yeah!
Yeah!
Yes, I did, I shot her
You know I caught her messin' round messin' round town
Huh, yes I did I shot her
You know I caught my old lady messin' 'round town
And I gave her the gun                                     
I shot her
Allright
Shoot her one more time again, baby!
Yeah!
Oh, dig it
Allright!
Hey Joe,
Where you gonna run to now, where gonna run to?
Hey Joe, I said
Where you gonna run to now, where you wanna go?
I'm goin' way down south
Way down to mexico way
Allright
I'm goin' way down south
Way down where I can be free
Ain't no one gonna find me
Ain't no hang-man gonna
He ain't gonna put a rope around me
You better believe it right now
I gotta go now
Hey, Joe
You better run on down
Goodbye everybody
Hey, Joe






     Standard tuning





e|-------- -------- -------- --------|-------- -------- 0---0--- --------|
B|-----------------------------------|------------------3/5-3------------|
G|-----------------------------------|-------------------------42P0-----|
D|-----------------------------------|------------------------------0H2--|
A|-----------------------------------|-----------------------------------|
E|-----------------------------------|-----------------------------------|






e|-------- 0------- -------- --------|-------- 0------- -------- --------|
B|---------0-------------------------|---------0------------7------7-----|
G|---------1-------------------------|---------1------------7------7-----|
D|----2-------------------5------4---|2--------2---2----7H9----7H9---9--|
A|----------------4/5-----5------4---|2--------2---2---------------------|
E|0------------0--------0------0-----|0--------0---0---------------------|




  00:08
  C                 G                 D                 A
e|-------- -------- ------3- --3-----|2---2-2- -------- -------- --------|   
B|---------1--------------3----3-----|3---3-3--3---3----2---2-2----2-2---|
G|---------0--------------4----4-----|2---2-2--2---2----2---2-2----2-2---|
D|---------2---2----5-----5--5-5-----|0--------2---4----2---2-2----2-2---|
A|3---3--------3----5--------5-------|-------------0----0---0-0----0-0---|
E|------------------3--------3---5/7-|-----------------------------------|  
             Hey      Joe,                             where with that
                                                        you goin'
e|-------- 3------- -------- 3-------|-------- 5------- -------- 5-------|
B|---------5-----------------3-------|---------7-----------------5-------|
G|---------5-----------------4-------|---------7-----------------6-------|
D|---------5-----------------5-------|---------7-----------------7-------|
A|---------3-----------------5-------|---------5-----------------7-------|
E|---------------------------3-------|---------------------------5-------|





  E
e|-------- -------- -------- --------|0---0-0- 0---0-0- 0---0-0- --0-0---|
B|-----------------------------------|0---0-0--0---0-0--0---0-0----0-0---|
G|1--------1-------------------------|1---1-1--1---1-1--1---1-1----1-1---|
D|2--------2--------0-----0------0---|2---2-2--2---2-2--2---2-2----2-2---|
A|2--------2--------0---2------2-----|2---2-2--2---2-2--2---2-2----2-2---|
E|0--------0-------------------------|0---0-0--0---0-0--0---0-0----0-0---|   
   gun     hand
     in your
e|-------- 0------- -------- --------|-------- 0------- -------- 0-------|
B|---------0-------------------------|---------0-----------------0-------|
G|---------1-------------------------|---------1-----------------1-------|
D|---------2--------------0------0---|2--------2-----------------2-------|
A|---------2------------2------2-----|---------2-----------------2-------|
E|---------0-------------------------|---------0-----------------0-------|






e|-------- -------- 3-----5- --3-----|2---2--- -------- -------- --------|
B|---------1---1-1--3-----3----3-3---|3---3----3---3-3--2-----2----2-2---|
G|---------0---0-0--4-----4----4-4---|2---2----2---2-2--2-----2----2-2---|
D|---------2---2-2--5------------5---|0--------2---4----2-----2----2-2---|
A|3---3--------3----5------------5---|------------------0-----0----0-0---|
E|------------------3------------3---|-----------------------------------|
             Hey      Joe,                       I said where with that
                                                         you goin'
e|-------- 3------- -------- 3-------|-------- 5------- -------- 5-------|
B|---------5-----------------3-------|---------7-----------------5-------|
G|---------5-----------------4-------|---------7-----------------6-------|
D|---------5-----------------5-------|---------7-----------------7-------|
A|---------3-----------------5-------|5--------5-----------------7-------|
E|---------------------------3---5/7-|---------------------------5-------|






e|0------- 0------- 0------- --------|0------- 0------- ----0-0- --0-----|
B|0--------0--------0----------------|0--------0-----0--0---3-5----3-----|
G|1--------1--------1-----0------0---|1--------1--------2/4----------4---|
D|2--------2--------2-----0------0---|2--------2-------------------------|
A|2--------2--------2---2------2-----|2--------2-------------------------|
E|0--------0--------0----------------|0--------0-------------------------|
   gun     hand              Oh
     in your
e|-------- 0------- -------- --------|-------- 0------- -------- --------|
B|---------0-------------------------|---------0-------------------------|
G|---------1-------------------------|---------1-------------------------|
D|---------2-------------------------|---------2-------------------------|
A|---------2--------------5------5---|7-~------2-------------------------|
E|---------0------------7------7-----|---------0-------------------------|




  00:31

e|-------- -------- 3-----5- --5-3-5-|-------- 2------- ------7- --7-5---|
B|---------1---1----3---3-3----3-3-3-|----3----3---3----5---5-5----5-5---|
G|---------0---0----4---4-4----4-4-4-|----2--------2----6---6-6----6-6---|
D|---------2---2----5---5------------|2/4---------------7---7--------7---|
A|3---3--------3----5---5------------|------------------7---7--------7---|
E|------------------3---3------------|------------------5---5--------5---|
           I'm      shoot   lady                You I  her messin'with  
            goin'down  my old                    know caught'round another
                  to
e|-------- 3------- -------- 3-------|-------- 5------- -------- 5-------|
B|---------5-----------------3-------|---------7-----------------5-------|
G|---------5-----------------4-------|---------7-----------------6-------|
D|---------5-----------------5-------|---------7-----------------7-------|
A|---------3-----------------5-------|5--------5-----------------7-------|
E|------------------3--------3---3/7-|---------------------------5-------|






e|0------- 0---0--- 0------- --------|0---0--- 0---0--- 0---0--- --0-0---|
B|0--------0---0----0----------------|0---0----0---0----0---0------0-0---|
G|1--------1---1----1-----0------0---|1---1----1---1----0---0------0-1---|
D|2--------2---2----2-----0------0---|2---2----2---2----0---0------0-2---|
A|2--------2---2----2---2------2-----|2---2----2---2----0---0------0-2---|
E|0--------0---0----0----------------|0---0----0---0-----------------0---|
  man                                     Yeah
e|-------- 0------- -------- --------|-------- -------- -------- --------|
B|---------0-------------------------|-----------------------------------|
G|---------1-------------------------|-----------------------------------|
D|---------2---------------------5B--|-----------------------------------|
A|---------2--------------7----------|7-~-------------------5----7-5-----|
E|---------0------------5------5-----|-------------------------------7---|  






e|-------- -------- 3-----5- --3-3-3-|-------- -------- 5---5-5- --5-5---|
B|---------1---1----3-----3----3-3-3-|5-7-7-5--7---5----5---5-5----5-5---|
G|---------0---0----4-----4----4-4-4-|5-7-7-5--7---5----6---6-6----6-6---|
D|---------2---2----5------------5---|5-7-7-5--7---5----7---7-7----7-7---|
A|3---3--------3----5------------5---|------------------7---7-7----7-7---|
E|------------------3------------3---|------------------5---5-5----5-5---|
        I'm         shoot  lady                You  I  her messin'with  
           goin'down  my old                    know caught 'round another
                  to
e|-------- 3------- -------- 3-------|-------- 5------- -------- 5-------|
B|---------5-----------------3-------|---------7-----------------5-------|
G|---------5-----------------4-------|---------7-----------------6-------|
D|---------5-----------------5-------|---------7-----------------7-------|
A|---------3-----------------5-------|---------5-----------------7-------|
E|---------------------------3-------|---------------------------5-------|






e|0------- 0------- 0---0-0- --0-0---|0---0--- 0------- 0-0-0--- 0---0---|
B|0--------0--------0---0-0----0-0---|0---0----0--------0-0-0----0---0---|
G|1--------1--------1---1-1----1-1---|1---1----1--------1-1-1----1---1---|
D|2--------2--------2---2-2----2-2---|2---2----2---2----2-2-2----2---2---|
A|2--------2--------2---2-2----2-2---|2---2----2---2----2-2-2----2---2---|
E|0--------0--------0---0-0----0-0---|0---0----0---0----0-0-0----0---0---|
      man             Huh!     and ain't  too  cool
                                 that
e|-------- 0------- -------- 0-------|-------- 0------- -------- 0-------|
B|---------0-----------------0-------|---------0-----------------0-------|
G|---------1-----------------1-------|---------1-----------------1-------|
D|---------2-----------------2-------|---------2-----------------2-------|
A|---------2-----------------2-------|---------2-----------------2-------|
E|---------0-----------------0-------|---------0-----------------0-------|




  00:54

e|----0--- 0------- -------- --------|-------- -------- -------- --------|
B|----1----1--------3---3----3-3-----|----3----3---3-3--2---2----2---2---|
G|----0----0--------4---4----4-4-----|2---2----2---2-2--2---2----2---2---|
D|2---2----2---2----5---5----5-5-----|0--------2---4----2---2----2---2---|
A|3---3----3---3----5---5----5-5-----|------------------0---0----0---0---|
E|------------------3---3----3-3-5/7-|-----------------------------------|
             Huh hey  Joe                                   I heard   your 
                                                                you shot
e|-------- 3------- -------- 3-------|-------- 5------- -------- 5-------|
B|---------5-----------------3-------|---------7-----------------5-------|
G|---------5-----------------4-------|---------7-----------------6-------|
D|---------5-----------------5-------|---------7-----------------7-------|
A|---------3-----------------5-------|---------5-----------------7-------|
E|---------------------------3-------|---------------------------5-------|






e|0---0--- 0---0--- 0---0-0- --------|-------- -------- -------- --------|
B|0---0----0---0----0---0-0----9-9-9-|9P7-7-7--7H9-9-9--9---9H10---9-----|
G|1---1----1---1----1---1-1----9-9-9-|9P7-7-7--7H9-9-9--9---9------9-----|
D|2---2----2---2----2---2-2----9-9-9-|9P7-7-7--7H9-9-9--9---9H11---9-----|
A|2---2----2---2----2---2-2----------|-----------------------------------|
E|0---0----0---0----0---0-0----------|-----------------------------------|
  mamma down, You  down now
               shot her
e|-------- 0------- -------- --------|-------- 0------- -------- 0-------|
B|---------0-------------------------|---------0-----------------0-------|
G|---------1-------------------------|---------1-----------------1-------|
D|---------2-------------------------|---------2-----------------2-------|
A|---------2--------------5------5---|---------2-----------------2-------|
E|---------0------------7------7-----|---------0-----------------0-------|  






e|-------- -------- -------- --------|2---2--- -------- -------- --------|
B|---------1--------3---3-3----3-3-3-|3---3----3---3----2---2-3----2-2---|
G|---------0--------4---4-4----4-4-4-|2---2----2---2----2---2-2----2-2---|
D|---------2---2----5---5-5----5-5-5-|0---0----0---0----2---2-2----2-2---|
A|3---3----3---3----5---5-5----5-5-5-|---------------2--4----------------|
E|------------------3---3-3----3-3-3-|-----------------------------------|
             Hey      Joe                                  I heard   your 
                                                               you shot
e|-------- 3------- -------- 3-------|-------- 5------- -------- 5-------|
B|---------5-----------------3-------|---------7-----------------5-------|
G|---------5-----------------4-------|---------7-----------------6-------|
D|---------5-----------------5-------|---------7-----------------7-------|
A|---------3-----------------5-------|5--------5-----------------7-------|
E|---------------------------3---3/7-|---------------------------5-------|    






e|0------- 0------- 0---0-0- --0-0---2/4--4--- 4---0--- --0-0--- 0-------|
B|0--------0--------0---0-0----0-0---0----0----0---0------0-0----0-------|
G|1--------1--------1---1-1----1-1---2/4--4----4---1------1-1----1-------|
D|2--------2--------2---2-2----2-2---|-------------2------2-2----2-------|
A|2--------2--------2---2-2----2-2---|-------------2------2-2----2-------|
E|0--------0--------0---0-0----0-0---|-------------0------0-0----0-------|
  lady down, you  down  groung,                               yeah!
             shot  on the
               her
e|-------- 0------- -------- 0-------|-------- -------- -------- --------|
B|---------0-----------------0-------|-----------------------------------|
G|---------1-----------------1-------|----2B3P2-~------------------------|  
D|---------2-----------------2-------|----------------------0H2----------|
A|---------2-----------------2-------|-----------------------------------|
E|---------0-----------------0-------|-----------------------------------|




  01:17

e|-------- -------- 3-----5- --3-----|2---2--- 2---2-2- -------- --------|
B|---------1---1----3-----3----3-3---|3---3----3---3-3--2---2-3----2-2-2-|
G|---------0---0----4-----4----4-4---|2---2----2---2-2--2---2-2----2-2-2-|
D|---------2---2----5------------5---|0---0----0---0-0--2---2-2----2-2-2-|
A|3---3----3---3----5------------5---|------------------0---0-0----0-0-0-|
E|------------------3------------3---|-----------------------------------|
             Yes, I did, I shot her                 You know  her messin' 
                                                          I caught   round
e|-------- 3------- -------- 3-------|-------- 5------- -------- 5-------|
B|---------5-----------------3-------|---------7-----------------5-------|
G|---------5-----------------4-------|---------7-----------------6-------|
D|---------5-----------------5-------|---------7-----------------7-------|
A|3---3----3---3-------------5-------|5--------5-----------------7-------|
E|------------------3--------3---3/7-|---------------------------5-------|






e|0------- 0---0--- 0------- --7-----|0---0--- 0---0--- 0---0--- 0---0---|
B|0--------0---0----0----------8B----|0---0----0---0----0---0----0---0---|
G|1--------1---1--------7-9------9---|1---1----1---1----1---1----1---1---|
D|2--------2---2------9------------9-|2---2----2---2----2---2----2---2---|
A|2--------2---2---------------------|2---2----2---2----2---2----2---2---|
E|0--------0---0---------------------|0---0----0---0----0---0----0---0---|    
  messin'  town
      round
e|-------- 0------- ----7--- --------|-------- 0------- -------- --------|
B|---------0------------8B9----------|---------0-------------------------|
G|---------1-----------------9------|---------1-------------------------|
D|---------2-------------------------|---------2------------2----4---0---|
A|---------2-------------------------|---------2-------------------------|
E|---------0-------------------------|---------0-------------------------|






e|-------- -------- 3---5-5- --5-5---|2---2--- 2-2-2--- -------- --------|
B|---------1--------3---3-3----3-3---|3---3----3-3-3----2---2-2----2-2---|
G|---------0---0----4---4-4----4-4---|2---2----4-2-2----2---2-2----2-2---|
D|---------2---2----5----------------|0---0----0-0-4----2---2-2----2-2---|
A|3---3----3---3----5----------------|------------------0---0-0----0-0---|
E|------------------3----------------|-----------------------------------|
             Yes, I did, I shot her              You         lady messin' 
                                                  know  my old       round
                                                   I caught 
e|-------- 3------- -------- 3-------|-------- 5------- -------- 5-------|
B|---------5-----------------3-------|---------7-----------------5-------|
G|---------5-----------------4-------|---------7-----------------6-------|
D|---------5-----------------5-------|---------7-----------------7-------|
A|3---3----3-----------------5-------|5--------5-----------------7-------|
E|------------------3--------3---3/7-|------------------5--------5-------|






e|0------- 0---0--- 0-0-0-0- --0-0-0-/4-4-4-4- 4-4-4-4- 4-4-4-4- 4-4-4---|
B|0--------0---0----0-0-0-0----0-0-0-|0-0-0-0--0-0-0-0--0-0-0-0--0-0-0---|
G|1--------1---1----1-1-1-1----1-1-1-/4-4-4-4--4-4-4-4--4-4-4-4--4-4-4---|
D|2--------2---2----2-2-2-2----2-2-2-|-----------------------------------|
A|2--------2---2----2-2-2-2----2-2-2-|-----------------------------------|
E|0--------0---0----0-0-0-0----0-0-0-|-----------------------------------|  
  town                 And I gave her gun                   I    shot her
                                    the
e|-------- -------- -------- --------|-------- -------- -------- --------|
B|-----------------------------------|-----------------------------------|
G|-----------------------------------|-----------------------------------|
D|-----------------------------------|-----------------------------------|
A|2----------------------------------|-----------------------------------|
E|0----------------------------------|-----------------------------------| 




  01:40

e|-------- -------- 3---3--- 5-----3-|2---2--- 2---2--- -------- --------|
B|1---1----1---1----3---3----3-----3-|3---3----3---3----2---2-2----2-2---|
G|0---0----0---0----4---4----4-----4-|2---2----2---2----2---2-2----2-2---|
D|2---2----2---2----5---5----x-------|0---0----2---4----2---2-2----2-2---|
A|3---3----3---3----5---5----5-------|------------------0---0-0----0-0---|
E|------------------3---3----3-------|-----------------------------------|

e|-------- 12------ -------- --------|-------- 1212---- -------- --------|
B|15B17-~---1512---------------------|15B17-~----1512-----12-------------|
G|-------------14B16R14P12-12-~------|---------------14B16--14---121412B-|
D|-----------------------14----------|-----------------------------------|
A|-----------------------------------|-----------------------------------|
E|-----------------------------------|-----------------------------------|






e|0---0--- 0-----0- 0---0--- 0-0-0-0-|0---0--- 0---0--- 0---0-0- --0-0---|
B|0---0----0-----0--0---0----0-0-0-0-|0---0----0---0----0---0-0----0-0---|
G|1---1----1-----1--1---1----1-1-1-1-|1---1----1---1----1---1-1----1-1---|
D|2---2----2-----2--2---2----2-2-2-2-|2---2----2---2----2---2-2----2-2---|
A|2---2----2-----2--2---2----2-2-2-2-|2---2----2---2----2---2-2----2-2---|
E|0---0----0-----0--0---0----0-0-0-0-|0---0----0---0----0---0-0----0-0---|   
                        Allright              Shoot one time       baby!
                                                her  more   again,        
e|-------- -------- -------- --------|-------- -------- -------- --------|
B|---------------------------12------|---------15B17-~------15B17-~------|
G|---------12--12-----------12B-----|-----------------------------------|
D|14-~-------14---------1214-----14-|-----------------------------------|
A|------------------7/14-------------|-----------------------------------|
E|-----------------------------------|-----------------------------------|






e|-------- -------- 3---3-5- --5-3---|2---3--- 2---2-2- -------- --------|
B|1---1----1---1-1--3---3-3----3-3---|3---3----3---3-3--2---2----2---2-2-|
G|0---0----0---0-0--4---4-4----4-4---|2---2----2---2-2--2---2----2---2-2-|
D|2---2----2---2-2--5---5--------5---|0---0----2---4-4--2---2----2---2-2-|
A|3---3----3---3-3--5---5--------5---|------------------0---0----0---0-0-|
E|------------------3---3--------3---|-----------------------------------|

e|1212---- --12---- -------- --------|-----1215B17R15B~12------- 12------|
B|121512-----1215---12---------------|----12------------------15--15-----|
G|------14B16---14B-------14-12-~----|-14B16-------------14B16-----14B16-|
D|--------------------1214-----------|-----------------------------------|
A|-----------------------------------|-----------------------------------|
E|-----------------------------------|-----------------------------------|






e|0---0--- 0---0--- 0---0-0- --0-0---|0-0-0--- 0-0-0--- 0-0-0-0- 0-0-0---|
B|0---0----0---0----0---0-0----0-0---|0-0-0----0-0-0----0-0-0-0--0-0-0---|
G|1---1----1---1----1---1-1----1-1---|1-1-1----1-1-1----1-1-1-1--1-1-1---|
D|2---2----2---2----2---2-2----2-2---|2-2-2----2-2-2----2-2-2-2--2-2-2---|
A|2---2----2---2----2---2-2----2-2---|2-2-2----2-2-2----2-2-2-2--2-2-2---|
E|0---0----0---0----0---0-0----0-0---|0-0-0----0-0-0----0-0-0-0--0-0-0---|
                        Yeah!                  Oh,      dig it!
e|-------- -------- -------- --------|-------- -------- -------- --------|
B|-----------------------------------|12---------------------------------|
G|12B-~--------------------------9-11|12B-~------------------------------|
D|------------------14------5/11----|------14--------------------------|
A|-----------------------------------|-----------------/14--------------|
E|-----------------------------------|-----------------------------------|




   02:03

e|-------- -------- -------- --------|-------- -------- -------- --------|
B|-----------------------------------|-----------------------------------|
G|-----------------------------------|-----------------------------------|
D|-----------------------------------|-----------------------------------|
A|3---------------------2----3---4---|5---------------------4----5---6---|
E|----0----1----2---3----------------|----2----3---4----5----------------|
                        Ah!               Ah!
e|-------- 3------- -------- 3-------|-------- 5------- -------- 5-------|
B|---------5-----------------3-------|---------7-----------------5-------|
G|---------5-----------------4-------|---------7-----------------6-------|
D|---------5-----------------5-------|---------7-----------------7-------|
A|---------3-----------------5-------|---------5-----------------7-------|
E|---------------------------3-------|---------------------------5-------|






e|-------- -------- -------- --------|-------- -------- -------- --------|
B|9---9----9P7-7-7----7-7---/9---9---|7---9----9P7-7-7--7H9-9----9---9---|
G|9---9----9P7-7-7----7-7---/9---9---|7---9----9P7-7-7--7H9-9----9---9---|
D|9---9----9P7-7-7----7-7---/9---9---|7---9----9P7-7-7--7H9-9----9---9---|
A|-----------------------------------|-----------------------------------|
E|-----------------------------------|-----------------------------------|   
                                                 Allright!
e|-------- -------- -------- --------|-------- -------- -------- --------|
B|---------97-------------/-9-------|----------------------9------------|
G|---------97-~-----------/-9-------|----------------------9------------|
D|---------97-------------/-9-------|----------------------9------------|
A|-----------------------------------|-----------------------------------|
E|-----------------------------------|-----------------------------------|   






e|8---8-8- 8---8--- 7---7-7- 7-7-----|5---5-5- 5---5--- 5---5-5- 7-5-5---|
B|8---8-8--8---8----8---8-8--8-8-----|7---7-7--7---7----5---5-5--5-5-5---|
G|9---9-9--9---9----7---7-7--7-7-----|7---7-7--7---7----6---6-6--6-6-6---|
D10--1010-10--10----9---9-9--9-9-----|7---7-7--7---7----7---7-7--x---7---|
A10--1010-10--10---10--1010-1010-----|5---5-5--5---5----7---7-7--7---7---|
E|8---8-8--8---8---------------------|------------------5---5-5--5---5---|
             Hey,     Joe                                Uh Where gonna 
                                                               you    run
e|3------- 3------- -------- 3-------|-------- 5------- -------- 5-------|
B|5--------5-----------------3-------|---------7-----------------5-------|
G|5--------5-----------------4-------|---------7-----------------6-------|
D|5--------5-----------------5-------|---------7-----------------7-------|
A|3--------3-----------------5-------|5--------5-----------------7-------|
E|---------------------------3---3/7-|---------------------------5-------|






e|0---0-0- 0---0-0- 0-0-0--- 0---0-0-|-------- 0---0-0- 0-0-0-0- 0-0-0---|
B|5---5-3--5---5-3--5-3-0----5---3-0-|---------0---0-3--5-5-3-5--5-5-3---|
G|-----------------------------------|-----------------------------------|
D|-----------------------------------|-----------------------------------|
A|-----------------------------------|-----------------------------------|
E|-----------------------------------|-----------------------------------|   
    to  now, where  run to?
               gonna    
e|-------- 0------- -------- 0-------|-------- -------- -------- 0-------|
B|---------0-----------------0-------|---------------HPHPH-------0-------|
G|---------1-----------------1-------|--------------797979-------1-------|
D|---------2-----------------2-------|---------7-B-9-------------2-------|
A|---------2-----------------2-------|---------------------------2-------|
E|---------0-----------------0-------|0--------------------------0-------|






e|8---8--- 8---8-8- 3---3-5- 5-3-----|5---5-5- 5-5-5-5- 5---5-5- 5-5-5---|
B|8---8----8---8-8--3---3-3--3-3-----|7---7-7--7-7-7-7--5---5-5--5-5-5---|
G|9---9----9---9-9--4---4-4--4-4-----|7---7-7--7-7-7-7--6---6-6--6-6-6---|
D10--10---10--1010--5---5------------|7---7-7--7-7-7-7--7---7-7--7-7-7---|
A10--10---10--1010--5---5------------|5---5-5--5-5-5-5--7---7-7--7-7-7---|
E|8---8----8---8-8--3---3------------|------------------5---5-5--5-5-5---| 
             Hey,     Joe,     I said                      Where   gonna 
                                                              you      run  
e|-------- 3------- -------- 3-------|-------- 5------- -------- 5-------|
B|---------5-----------------3-------|---------7-----------------5-------|
G|---------5-----------------4-------|---------7-----------------6-------|
D|---------5-----------------5-------|---------7-----------------7-------|
A|---------3-----------------5-------|5--------5-----------------7-------|
E|---------------------------3---3/7-|---------------------------5-------|




 

e|0---0--- 0---0--- 0---0--- 0---0---|-------- 9------- -------- 9-------|
B|0---0----0---0----0---0----0---0---|9--12---1012-9--------9-1210-12-9--|
G|1---1----1---1----1---1----1---1---|9--12----912-9--------9-12-9-12-9--|
D|2---2----2---2----2---2----2---2---|9--12-----12-9--------9-12---12-9--|
A|2---2----2---2----2---2----2---2---|-----------------------------------|
E|0---0----0---0----0---0----0---0---|-----------------------------------|  
    to  now   where you..    Where    go?                          where's 
                               you wanna                               it?
e|-------- 0------- 0------- --------|-------- ----10-- -------- --------|
B|---------0--------0------------HPHPH-------------11B------------------|
G|---------1--------1-----------797979-----------------------------------|
D|---------2--------2--------7B9-----|-----------------------------------|
A|---------2--------2----------------|-----------------------------------|
E|---------0--------0----------------|-----------------------------------|






e|8---8--- 8-8-8--- 3---5--- 3---3---|2-2-2-2- 2---2-2- -------- --------|
B|8---8----8-8-8----3---3----3---3---|3-3-3-3--3---3-3--2---2----2-------|
G|9---9----9-9-9----4---4----4---4---|4-4-4-4--4P2-2-2--2---2----2-------|
D10--10---101010----5---x----5---5---|0-0-0-0--0---4-2--2---2----2-------|
A10--10---101010----5---5----5---5---|------------------0---0----4H5/7---|
E|8---8----8-8-8----3---3----3---3---|-----------------------------------|
            I'm  way    south                              way down    to
              goin' down   
e|-------- 3---3--- 3------- 3-------|-------- 5------- -------- 5-------|
B|---------5---5----3--------3-------|---------7-----------------5-------|
G|---------5---5----4--------4-------|---------7-----------------6-------|
D|---------5---5----5--------5-------|---------7-----------------7-------|
A|---------3---3----5--------5-------|5---5----5-----------------7-------|
E|------------------3--------3---3/7-|---------------------------5-------|






e|4---4--- 4---4-4- --4-4--- 4-4-4-4-|4-----4- 4-----4- 4-----4- 4---0---|
B|5---5----5---5-5----5-5----5-5-5-5-|5-----5--5-----5--5-----5--5---0---|
G|4---4----4---4-4----4-4----4-4-4-4-|4-----4--4-----4--4-----4--4---1---|
D|6---6----6---6-6----6-6----6-6-6-6-|6--/6-------/6-------/6--------2---|
A|-----------------------------------|-------------------------------2---|
E|-----------------------------------|-------------------------------0---|  
  Mexico   way                          Allright!
e|-------- 0------- -------- --------|-------- 0------- -------- 0-------|
B|---------0-------------------------|---------0-----------------0-------|
G|---------1---------------------HPHPH---------1-----------------1-------|
D|---------2--------------------242424---------2-----------------2-------|
A|---------2-----------------0H2-----|---------2-----------------2-------|
E|---------0-------------------------|---------0-----------------0-------|






e|-------- -------- -------- --------|-------- -------- -------- --------|
B|-----------------------------------|-----------------------------------|
G|-----------------------------------|-----------------------------------|
D|-----------------------------------|-----------------------------------|
A|3---------------------2----3---4---|5---------------------4----5---6---|
E|----0----1----2---3----------------|----2----3---4----5----------------|
        I'm goin'       south                             way down   where
               way down
e|-------- 3------- -------- 3-------|-------- -------- -------- 5-------|
B|---------5-----------------3-------|---------------------------5-------|
G|---------5-----------------4-------|---------------------------6-------|
D|---------5-----------------5-------|---------------------------7-------|
A|---------3-----------------5-------|5H7P5----------------------7-------|
E|---------------------------3---3/7-|---------------------------5-------|






e|-------- -------- -------- --------|-------- -------- -------- --------|
B|9---9-9--9P7-7-7--7H9-9-9--9---9---|9H1010---12----1010P9-9H1010P9-9---|
G|9---9-9--9P7-7-7--7H9-9-9--9---9---|9----9----9-----9-9---9----9-9-9---|
D|9---9-9--9P7-7-7--7H9-9-9--9---9---|9H1111---12----1111P9-9H1111P9-9---|
A|-----------------------------------|-----------------------------------|
E|-----------------------------------|-----------------------------------|
  I can be free              Ain't      gonna   me
                                no one     find
e|-------- 0------- -------- 0-------|-------- 0------- -------- --------|
B|---------0-----------------0-------|---------0-------------------------|
G|---------1-----------------1-------|---------1-------------------------|
D|---------2-----------------2-------|---------2----------B3R2P0---------|
A|---------2-----------------2-------|---------2-----------------2---0H2-|
E|---------0-----------------0-------|---------0-------------------------|






e|-------- 8-----8- 3---3-5- 5-3-3-3-|2---2--- -------- -------- --------|
B|---------8-----8--3---3-3--3-3-5-3-|3---3----3---3----2---2-2----2-2---|
G|---------9-----9--4---4-4--4-4-4-4-|2---2----2---2----2---2-2----2-2---|
D|--------10----10--5----------------|0---0----2---4----2---2-2----2-2---|
A|--------10----10--5----------------|------------------0---0-0----0-0---|
E|8---8----8-----8--3----------------|-----------------------------------|
           Ain't no hang-man gonna         He ain't put rope  around 
                                                gonna a
e|-------- 3------- -------- 3-------|-------- 5------- -------- 5-------|
B|---------5-----------------3-------|---------7-----------------5-------|
G|---------5-----------------4-------|---------7-----------------6-------|
D|---------5-----------------5-------|---------7-----------------7-------|
A|3--------3---3-------------5-------|5--------5-----------------7-------|
E|------------------3--------3---3/7-|---------------------------5-------|






e|0------- 0------- 0---0-0- --0-0-0-|0-0-0-0- 0---0--- 0---0--- 0-0-0---|
B|0--------0--------0---0-0----0-0-0-|0-0-0-0--0---0----0---0----0-0-0---|
G|1--------1--------1---1-1----1-1-1-|1-1-1-1--1---1----1---1----1-1-1---|
D|2--------2--------2---2-2----2-2-2-|2-2-2-2--2---2----2---2----2-2-2---|
A|2--------2--------2---2-2----2-2-2-|2-2-2-2--2---2----2---2----2-2-2---|
E|0--------0--------0---0-0----0-0-0-|0-0-0-0--0---0----0---0----0-0-0---|
  me          You better  it   right             I gotta  now
                   believe        now                 go
e|-------- 0------- -------- 0-------|-------- -------- -------- --------|
B|---------0-----------------0-------|------------------15B17-----------|
G|---------1-----------------1-------|-----------------------------------|
D|---------2-----------------2-------|---------0H2-----------------------|
A|---------2-----------------2-------|-----------------------------------|
E|---------0-----------------0-------|-----------------------------------|






e|-------- -------- -------- --------|-------- -------- -------- --------|
B|-----------------------------------|-----------------------------------|
G|-----------------------------------|-----------------------------------|
D|-----------------------------------|-----------------------------------|
A|3---------------------2----3---4---|5---------------------4----5---6---|
E|----0----1----2---3----------------|----2----3---4----5----------------|
    Hey,              Joe                        You better   on     down
                                                        run
e|-------- 8------- -------- 3-------|-------- 5------- -------- 5-------|
B|---------8-----------------3-------|---------7-----------------5-------|
G|---------9-----------------4-------|---------7-----------------6-------|
D|--------10-----------------5-------|---------7-----------------7-------|
A|--------10-----------------5-------|5--------5-----------------7-------|
E|---------0-----------------3-------|---------------------------5-------|

  ..................................Fade.................................




e|0------- 0-----0-/4---4-4- 4-0-0---|0------- 0-----0- 0-0-0--- 0---0---|
B|0--------0-----0--0---0-0--0-0-0---|0--------0-----0--0-0-0----0---0---|
G|1--------1-----1-/4---4-4--4-1-1---|1--------1-----1--1-1-2B4--2P1-1---|
D|2--------2-------------------------|2--------2-----2--2------------2---|
A|2--------2-------------------------|2--------2-----2--2----------------|
E|0--------0-------------------------|0--------0-----0--0----------------|
                   Goodbye everybody               Ow!
e|-------- 0------- -------- 0-------|-------- 0------- -------- 0-------|
B|---------0-----------------0-------|---------0-----------------0-------|
G|---------1-----------------1-------|---------1-----------------1-------|
D|---------2-----------------2-------|---------2-----------------2-------|
A|---------2-----------------2-------|---------2-----------------2-------|
E|---------0--------0---0----0-------|---------0-----------------0-------|

  .......................................................................




e|-------- -------- -------- --------|-------- -------- -------- --------|
B|-----------------------------------|-----------------------------------|
G|-----------------------------------|-----------------------------------|
D|-----------------------------------|-----------------------------------|
A|3---------------------2----3---4---|5---------------------4----5---6---|
E|----0----1----2---3----------------|----2----3---4----5----------------|
      Hey,                Joe
e|-------- 3------- -------- 3-------|-------- 5------- -------- 5-------|
B|---------5-----------------3-------|---------7-----------------5-------|
G|---------5-----------------4-------|---------7-----------------6-------|
D|---------5-----------------5-------|---------7-----------------7-------|
A|---------3-----------------5-------|---------5-----------------7-------|
E|---------------------------3-------|---------------------------5-------|
 
  .......................................................................










        B  Bend
        R  Release
        /  Slide up
          Slide down
        H  Hammer-on
        P  Pull-off
        ~  Vibrato
        +  Harmonic
        x  Mute note
        .  Play note like a dot in standard notation
        ^  Ties two notes together
        (.  Pause
     





 
 
Jimi Hendrix - Hey Joe Tab :: indexed at Ultimate Guitar.
Hey Joe tabs @ 911Tabs

About the artist behind Hey Joe Tab:

Jimi Hendrix (November 27, 1942 – September 18, 1970) was an American guitarist, singer and songwriter whose guitar playing was influential on rock music.[1] After initial success in Europe, he achieved fame in the USA following his 1967 performance at the Monterey Pop Festival. Later, Hendrix headlined the iconic 1969 Woodstock Festival.

Hendrix helped develop the technique of guitar feedback with overdriven amplifiers.[2] He was influenced by blues artists such as B.B. King, Muddy Waters, Albert King, and Elmore James,[3][4][5][6] rhythm and blues and soul guitarists Curtis Mayfield, Steve Cropper, as well as by some modern jazz.[7]

Carlos Santana has suggested that Hendrix's music may have been influenced by his Native American heritage.[8] As a record producer, Hendrix also broke new ground in using the recording studio as an extension of his musical ideas; he was one of the first to experiment with stereophonic and phasing effects during recording.

Hendrix won many of the most prestigious rock music awards in his lifetime and has been posthumously awarded many more, including being inducted into the USA's Rock and Roll Hall of Fame in 1992 and the UK Music Hall of Fame in 2005. An English Heritage "Blue plaque" was erected in his name on his former residence at Brook Street, London in September 1997 and his star on the Hollywood Walk of Fame (at 6627 Hollywood Blvd.) was dedicated in 1994. In 2006, his debut USA album, Are You Experienced, was inducted into the United States National Recording Registry and Rolling Stone named Hendrix the best guitarist on their list of the 100 Greatest Guitarists of All Time in 2003.[9]

Indexed at Wikipedia.

Show us your talent, perform Hey Joe Tab!

Here you can post a video or audio performance. Tell me more ...
Where can we find your performance? Tell me more ...
Your comment:
Please, log in to post your performance.