Artists by letter: A B C D E F G H I J K L M N O P Q R S T U V W X Y Z 0-9

 
You And I Both Tab
YOU AND I BOTH
Jason Mraz

[email protected]

Standard Tuning	(EADGBE)

Verse:
was it you..

E-3-/-7---5---3-/-5--
B-3-/-8---5---5-/-7--
G-4-/-9---5---5-/-7--play 3x
D-5-/-9---5---5-/-7--
A-5-/-7---7---3-/-5--
E-3-/-0---5----------

Chorus:
coz you and i both loved...

E-3-/-7---5---3-/-5--
B-3-/-8---5---5-/-7--
G-4-/-9---5---5-/-7--play 2x
D-5-/-9---5---5-/-7--
A-5-/-7---7---3-/-5--
E-3-/-0---5----------

Adlib:

E-3-/-7---5---3-/-5--
B-3-/-8---5---5-/-7--
G-4-/-9---5---5-/-7--
D-5-/-9---5---5-/-7--
A-5-/-7---7---3-/-5--
E-3-/-0---5----------

BRIDGE:

"but it's ok.."

E-3--5--3-------5--5-------
B-5--7--33--0---5--7-------
G-5--7--0--0---5--7-------
D-5--7--0---2---5--7-------
A-3--5--2--2---7--5-------
E-------32--0---5----------


E--3---0---5--3--5---------
B--33--0---5--5--7---------
G--0--0---5--5--7---------
D--0--2---5--5--7---------
A--2--2---7--3--5---------
E--32--0---5---------------

End at G.

=====w&_17=====

 
 
Jason Mraz - You And I Both Tab :: indexed at Ultimate Guitar.
You And I Both tabs @ 911Tabs

About the artist behind You And I Both Tab:

Jason Thomas Mraz (pronounced /'dʒeɪsən ˈɱɹæz/; born June 23, 1977) is an American singer-songwriter, born and raised in Mechanicsville, Virginia, a suburb of Richmond.[1]

Mraz is an eclectic artist with multiple and varied stylistic influences, including pop, rock, folk, jazz, country, and hip hop. He has played with various artists, including The Rolling Stones, Bob Dylan, Dave Matthews Band, James Blunt, Gavin DeGraw, Paula Cole, John Popper, Alanis Morissette, The Ohio Players, Rachael Yamagata, Jewel and Colbie Caillat.[citation needed]

Indexed at Wikipedia.

Show us your talent, perform You And I Both Tab!

Here you can post a video or audio performance. Tell me more ...
Where can we find your performance? Tell me more ...
Your comment:
Please, log in to post your performance.