Artists by letter: A B C D E F G H I J K L M N O P Q R S T U V W X Y Z 0-9

 

The Remedy Tab
Intro
-------------------------------------------------------|
G5  D#5 A#5  F5  D5  A5 A#5 B#5  -----> slide from B#5-| back to open

-------------------------------------|
-------------------------------------|
-----8-------10----------------------|
-5---8---8---10--12--7---8--10-------|    I wrote these as power chords
-5---6---8---8---12--7---8--10-- 
-3-------6-------10--5---6--8--------|    as root w/5th. They can be played either way


verse
------------
 G5 D5 F5  Pause

----------|
----------|
----7-----|
-5--7--3--|
-5--5--3--|
-3-----1--|

Pre Chorus
------------
 G  ?  F
-X--X--X--X---------------|
-X--8--X--6---------------|
-4--7--2--5---------------|
-5--7--3--5---------------|
-5--X--3--X---------------|
-3--8--1--6---------------|


Chorus (Same as intro)
------------
G5 D#5 A#5 F5 D5 A5 A#5 B#5

--------------------------------|
--------------------------------|
-----8-------10-----------------|
-5---8---8---10--12--7---8--10--|
-5---6---8---8---12--7---8--10--|
-3-------6-------10--5---6--8---|


interlude
------------
 Gm  D# A# ?
-10--6--6-------------------|
-11--8--6--10---------------|
-12--8--7--10---------------|
-12--8--8--10---------------|
-10--6--8--12---------------|
-10--6--6--X----------------|


funky part

----------------------------------------|
------------6---------------------------|
------------6---------------------------|
------------6------------------------3--|
-----4-6-8--X---Repeat-then-end-on->-3--|
-4h6--------6------------------------1--|


Order
------
Intro
Verse
Pre Chorus
Chorus
Verse
Pre Chorus
Interlude
Funky Part
Chorus

 
 
Jason Mraz - The Remedy Tab :: indexed at Ultimate Guitar.
The Remedy tabs @ 911Tabs

About the artist behind The Remedy Tab:

Jason Thomas Mraz (pronounced /'dʒeɪsən ˈɱɹæz/; born June 23, 1977) is an American singer-songwriter, born and raised in Mechanicsville, Virginia, a suburb of Richmond.[1]

Mraz is an eclectic artist with multiple and varied stylistic influences, including pop, rock, folk, jazz, country, and hip hop. He has played with various artists, including The Rolling Stones, Bob Dylan, Dave Matthews Band, James Blunt, Gavin DeGraw, Paula Cole, John Popper, Alanis Morissette, The Ohio Players, Rachael Yamagata, Jewel and Colbie Caillat.[citation needed]

Indexed at Wikipedia.

Show us your talent, perform The Remedy Tab!

Here you can post a video or audio performance. Tell me more ...
Where can we find your performance? Tell me more ...
Your comment:
Please, log in to post your performance.