Artists by letter: A B C D E F G H I J K L M N O P Q R S T U V W X Y Z 0-9

 
Sleeping To Dream Tab
Capo 2nd fret

All chords relative to capo

This is an awesome song, I can't figure out the just a little lullaby part so please 
me if you can find that part.  The rest should be very accurate.  Enjoy
[email protected]


Intro/Verse/Chorus
--3(3)--------------------|
--3--3---------------------|
--0--0---------------------|
--0--2---------------------|
--2--3---------------------|
--3--x---------------------|

Pre-chorus
			
--0-----------0----------------------------------|
---1-----1-----1---1-------------------------3----|
---0-----0-----2---0-------------------------0----|
---2-----0-----2---2-------------------------4----|
---3--2--2--2--0---3-------------------------5----|
---x----------------------------------------------|

Chorus
		End of chorus(Im so tired ):
--3(3)--------------------------1----------------|
--3--3---------------------------1----------------|
--0--0---------------------------2----------------|
--0--2---------------------------3----------------|
--2--3---------------------------3----------------|
--3--x-------------------------0h1----------------|

 
 
Jason Mraz - Sleeping To Dream Tab :: indexed at Ultimate Guitar.
Sleeping To Dream tabs @ 911Tabs

About the artist behind Sleeping To Dream Tab:

Jason Thomas Mraz (pronounced /'dʒeɪsən ˈɱɹæz/; born June 23, 1977) is an American singer-songwriter, born and raised in Mechanicsville, Virginia, a suburb of Richmond.[1]

Mraz is an eclectic artist with multiple and varied stylistic influences, including pop, rock, folk, jazz, country, and hip hop. He has played with various artists, including The Rolling Stones, Bob Dylan, Dave Matthews Band, James Blunt, Gavin DeGraw, Paula Cole, John Popper, Alanis Morissette, The Ohio Players, Rachael Yamagata, Jewel and Colbie Caillat.[citation needed]

Indexed at Wikipedia.

Show us your talent, perform Sleeping To Dream Tab!

Here you can post a video or audio performance. Tell me more ...
Where can we find your performance? Tell me more ...
Your comment:
Please, log in to post your performance.