Artists by letter: A B C D E F G H I J K L M N O P Q R S T U V W X Y Z 0-9

The Sacrament Acoustic Tab (ver 3) - Him


 

The Sacrament Acoustic Tab
#----------------------------------PLEASE NOTE---------------------------------#
#This file is the author's own work and represents their interpretation of the #
#song. You may only use this file for private study, scholarship, or research. #
#------------------------------------------------------------------------------#

Artist > Him (His infernal majesty)
Song   > The Sacrament (acoustic) / Track
Album  > Love Metal / 2002
Tabber > Goran Kalamiza / [email protected]
Tabbed > 9th January 2005 / 16:10 +0100 GMT / Bjelovar, Croatia

!Note! > Piano is arranged for acoustic guitar with normal tuning (E-A-D-G-B-e).

Tuning > E-A-D-G-B-e / low to high (Standard E)
Chords > Am     (x02210)
         C      (332010)
         Cadd9  (332030)
         D      (200232)
         Em     (022000)
         Em7    (020030)
         G      (320033)


Piano intro/chorus transcribed for acoustic guitar
 (play this also on chorus)

e-0-------0-------0-------5---------------------------------------|
B-----0-------0-------0-------0---8-------------------------------|
G---5---5---5---5---5---5---5---5---0---0---0---0---0---0---0---0-|
D-------------------------------------4-------4-------4-------4---|
A-3---------------0-----------------------7---------------7-------|
E---------------------------------0---------------0---------------|
   |       |       |       |       |       |       |       |

e-0-------0-------0-------5---------------------------------------|
B-----0-------0-------0-------0---8-------------------------------|
G---5---5---5---5---5---5---5---5---0---0---0---0---0---0---0---0-|
D-------------------------------------4-------4-------4-------4---|
A-3---------------0-----------------------7---------------7-------|
E---------------------------------0---------------0---------------|
   |       |       |       |       |       |       |       |

e-0-------0-------0-------5---------------------------------------|
B-----0-------0-------0-------0---8---------------7---------------|
G---5---5---5---5---5---5---5---5---0---0---0---0---0---0---0---0-|
D-------------------------------------4-------4-------4-------4---|
A-3---------------0-----------------------7-------5-------5-------|
E---------------------------------0-------------------------------|
   |       |       |       |       |       |       |       |

e-0-------0-------0-------5-------3~~~~~~~~~~~~~~~~~~~~~~~~~~~~~~-|
B-----0-------0-------0-------0-----------------------------------|
G---5---5---5---5---5---5---5---5-0~~~~~~~~~~~~~~~~~~~~~~~~~~~~~~-|
D---------------------------------2~~~~~~~~~~~~~~~~~~~~~~~~~~~~~~-|
A-3---------------0-----------------------------------------------|
E---------------------------------0~~~~~~~~~~~~~~~~~~~~~~~~~~~~~~-|
   |       |       |       |       |       |       |       |


Piano interlude transcribed for acoustic guitar

e-------------------------0---------------------------------------|
B-0-------0-------0---------------3-------3-------3-------1-------|
G---0---0---0---0---0---0---0---0---0---0---0---0---0---0---0---0-|
D-----4-------4-------4-------4-------4-------4-------4-------4---|
A-----------------------------------------------------------------|
E-0-------------------------------0-------------------------------|
   |       |       |       |       |       |       |       |

[intro]

[C] [Am] [Em] [Em]
[C] [Am] [Em] [Em]
[C] [Am] [Em] [D]
[C] [Am] [Em] [Em]


[verse]

I [Am]hear you breathe so [C(add9)]far from me
I [Am]feel your touch so [C(add9)]close and real
And I kno[D]w
My chu[Em]rch is not of [C]silver and go[G]ld,
[D]It's glory li[Em]es beyond [C]judgement of so[G]uls
[D]The commandments a[Em]re of consola[C]tion o[G][D]h


[chorus]

[C]You know our sa[Am]cred dream won't [Em7]fail
[C]The sanctuary ten[Am]der and so [Em7]frail
[C]The sacrame[Am]nt of love
[Em]The sacrame[D]nt of warmth is tru[C]e
The [Am]sacrament is y[Em]ou


[verse]

I [Am]hear you weep so [C(add9)]far from me
I [Am]taste your tears like you're [C(add9)]next to me
And I kno[D]w
That our pra[Em]yers are not e[C]nough to gi[G]ve
[D]Oh the an[Em]cient runes so [C]deep and so de[G]ar
[D]The revela[Em]tion is our pa[C]tron fe[G][D]ar


[chorus]

[C]You know our sa[Am]cred dream won't [Em7]fail
[C]The sanctuary ten[Am]der and so [Em7]frail
[C]The sacrame[Am]nt of love
[Em]The sacrame[D]nt of warmth is tru[C]e
The [Am]sacrament is y[Em]ou


[interlude]

[Em]The sacrament is y[Em]ou
[Em]The sacrament is y[Em]ou
[Em]The sacrament is y[Em]ou
[Em]The sacrament is y[Em]ou


[chorus]

[C]You know our sa[Am]cred dream won't [Em7]fail
[C]The sanctuary ten[Am]der and so [Em7]frail
[C]The sacrame[Am]nt of love
[Em]The sacrame[D]nt of warmth is tru[C]e
The [Am]sacrament is y[Em]ou


[chorus]

[C]You know our sa[Am]cred dream won't [Em7]fail
[C]The sanctuary ten[Am]der and so [Em7]frail
[C]The sacrame[Am]nt of love
[Em]The sacrame[D]nt of warmth is tru[C]e
The [Am]sacrament is y[Em]ou

 
 
Him - The Sacrament Acoustic Tab :: indexed at Ultimate Guitar.
The Sacrament Acoustic tabs @ 911Tabs

Quick tip, so you can enjoy The Sacrament Acoustic Tab even more:

After the registration (which takes just 10 seconds, remember?) you will be able to use your profile - your very own piece of YourChords.com.

Show us your talent, perform The Sacrament Acoustic Tab!

Here you can post a video or audio performance. Tell me more ...
Where can we find your performance? Tell me more ...
Your comment:
Please, log in to post your performance.