Artists by letter: A B C D E F G H I J K L M N O P Q R S T U V W X Y Z 0-9

Snap Your Fingers Snap Your Neck Tab (ver 2) - Grinspoon


 
Snap Your Fingers Snap Your Neck Tab
SONG: Snap Your Fingers, Snap Your Neck
ARTIST: Grinspoon (covering Prong)
ALBUM: Pushing Buttons EP
TAB: Mikey
E-MAIL: [email protected]


TUNING: Drop-C (CGCFAD)


This is basically exactly the same as the original Prong version, but a little bit
different (the end of the verse, on the Prong version, has a more double-kick drum
sound to it, and the second verse of the Grinspoon version repeats the main heavy
riff throughout, as well as having the PM'd riff). The chorus is also played a little
bit differently. But anyway this is Grinspoon's kickarse version. Enjoy!



INTRO
D |------------------------------------------------------------------------------------|
A |------------------------------------------------------------------------------------|
F |--------------------------6--------------------------------6------------------------|
C |------------------------------------------------------------------------------------|
G |-----0---0-0--------------4------------(4)-0--------------4-------------5/10-----|
C |-----0---0-0--------------------------------0----------------------------5/10-----|
     PM ^   ^

D |---------------------------------|
A |---------------------------------|
F |o-------------------------------o|
C |o-------------------------------o|
G |-----0--0--0---------1-----1-----|
C |-----0--0--0---------1-----1-----|
    (play x 8)

D |--------------------------------------|
A |--------------------------------------|
F |--------------------------------------|
C |--------------------------------------|
G |-----0---------
C |-----0---------




VERSE
D |--------------------------|
A |--------------------------|
F |o------------------------o|
C |o------------------------o|
G |-----12(0)---0--0--0-----|
C |-----12(0)---0--0--0-----|
    (play x 2)

D |----------------|-----------------------------------|
A |----------------|-----------------------------------|
F |----------------|o---------------------------------o|
C |----------------|o---------------------------------o|
G |-----12(0)-----|----------------------------5^-----|
C |-----12(0)-----|-----0--0-0--5--0-0-6-0-5-0--------|
                      PM ^  ^ ^  ^  ^ ^ ^ ^ ^ ^
                      (play x 8)                 1/2




CHORUS
D |------------------------------------------------------|
A |------------------------------------------------------|
F |o----5----5--5--8--8--8--7----7--7--7--7--7--7--7----o|
C |o----------------------------------------------------o|
G |-----3----3--3--6--6--6--5----5--5--5--5--5--5--5-----|
C |------------------------------------------------------|
    (play x 4)



POST-CHORUS
D |---------------------------------|
A |---------------------------------|
F |o-------------------------------o|
C |o-------------------------------o|
G |-----0--0--0---------1-----1-----|
C |-----0--0--0---------1-----1-----|
    (play x 8)




VERSE 2
(guitar 1)
D |---------------------------------|
A |---------------------------------|
F |o-------------------------------o|
C |o-------------------------------o|
G |-----0--0--0---------1-----1-----|
C |-----0--0--0---------1-----1-----|
    (play x 16)

(guitar 2)
D |---------------------------------------------|
A |---------------------------------------------|
F |o-------------------------------------------o|
C |o-------------------------------------------o|
G |-----5-5-5-5-5-5-5-5-5-5-5-5-5-5-5-5-5-5-----|
C |---------------------------------------------|
    (play x 16)



   repeat CHORUS x 2



BRIDGE
D |-----------------------------------|
A |-----------------------------------|
F |o---------------------------------o|
C |o---------------------------------o|
G |----------------------------5^-----|
C |-----0--0-0--5--0-0-6-0-5-0--------|
     PM ^  ^ ^  ^  ^ ^ ^ ^ ^ ^
    (play x 8)                  1/2

D |---------------------------------|
A |---------------------------------|
F |o-------------------------------o|
C |o-------------------------------o|
G |-----0--0--0---------1-----1-----|
C |-----0--0--0---------1-----1-----|
    (play x 8)

(guitar 1, guitar 2 solo's)
D |------------------------------------------------------|
A |------------------------------------------------------|
F |o----5----5--5--8--8--8--7----7--7--7--7--7--7--7----o|
C |o----------------------------------------------------o|
G |-----3----3--3--6--6--6--5----5--5--5--5--5--5--5-----|
C |------------------------------------------------------|
    (play x 4)



   repeat CHORUS x 2 (w/solo'ing)



OUTRO
D |---------------------------------|
A |---------------------------------|
F |o-------------------------------o|
C |o-------------------------------o|
G |-----0--0--0---------1-----1-----|
C |-----0--0--0---------1-----1-----|
    (play x 8)

D |-------------------------------------|
A |-------------------------------------|
F |-------------------------------------|
C |-------------------------------------|
G |-----0--0--0---------1-----1---0-----|
C |-----0--0--0---------1-----1---0-----|



VERSE 1
Nothing breeds more contempt 
for this world than the mem'ries now formed
Ev'ry moment, a new seed
Is grown to no reason, the trouble unfolds      

For the trials of today, I'm no jury
Really don't care how ya feel
The pleasant notion of miraculous change
drifts into multiple jeers

Jeers
Jeers!


CHORUS
You want the good life
You break your back
You snap your fingers
You snap your neck


VERSE 2
Seconds drip through my hands
washed of moments born
All the spaces between bleed
A tribute to a sacrament never exposed
A message to the forces
I've no pity, don't know how thankful to feel
Expectations of my daily bread
gives me the hunger to steal


CHORUS 
You want the good life
you break your back
You snap your fingers
you snap your neck

You want the good life
you break your back
You snap your fingers
You snap your neck


BRIDGE
You want the good life
you break your back
You snap your fingers
you snap your neck
You want the good life
you break your back
You snap your fingers
you snap your neck


OUTRO
Snap your fingers, snap your neck
Snap your fingers, snap your neck


 
 
Grinspoon - Snap Your Fingers Snap Your Neck Tab :: indexed at Ultimate Guitar.
Snap Your Fingers Snap Your Neck tabs @ 911Tabs
People who played Grinspoon - Snap Your Fingers Snap Your Neck Tab also played these songs by Grinspoon:
Minute By Minute Tab, Comeback Tab, Drugs Dont Work Tab, Hard Act To Follow Tab, Minute By Minute Acoustic Tab, Sweet As Sugar Tab

About the artist behind Snap Your Fingers Snap Your Neck Tab:

Grinspoon are an Australian post-grunge band from Lismore, fronted by Phil Jamieson with Pat Davern on guitar, Joe Hansen on bass, and Kristian Hopes on drums.

Indexed at Wikipedia.

Show us your talent, perform Snap Your Fingers Snap Your Neck Tab!

Here you can post a video or audio performance. Tell me more ...
Where can we find your performance? Tell me more ...
Your comment:
Please, log in to post your performance.