Artists by letter: A B C D E F G H I J K L M N O P Q R S T U V W X Y Z 0-9

 
These Shrouded Temples Tab
[This tab will view correctly in Notepad]

Title  - These Shrouded Temples
Artist - Corrosion of Conformity
Album  - BLiND

NOTE - All double/triple guitaring is in real time.

PM  -  Palm Mute
lr  -  Let ring until next note
... -  Let ring for time
V   -  Vibrato
/   -  Slide
*   -  Track time (counting down)

____________________________________________________________________________________________
If you choose to use one guitar on this, both parts can be played by one guitar.

Guitar 1
 PM...                PM.....                       PM...... 
|-------------------------------------------------------------------------------------------
|-------------------------------------------------------------------------------------------
|-------------------------------------------------------------------------------------------
|--5-5--5lr-------------5--5----5lr---------------------5--5----5lr-------------------------
|--5-5--5lr-------------5--5----5lr---------------------5--5----5lr-------------------------
|--3-3--3lr-------------3--3----3lr---------------------3--3----5lr-------------------------

Guitar 2
          PM....                     PM......                        PM....
|-------------------------------------------------------------------------------------------
|-------------------------------------------------------------------------------------------
|-------------------------------------------------------------------------------------------
|-----------5-5--5lr--------------------5--5----5lr---------------------5-5----5lr----------
|-----------5-5--5lr--------------------5--5----5lr---------------------5-5----5lr----------
|-----------3-3--3lr--------------------3--3----3lr---------------------3-3----3lr----------

____________________________________________________________________________________________

Guitar 1
|-------------------------------------------------------------------------------------------
|-------------------------------------------------------------------------------------------
|-------------------------------------------------------------------------------------------
|----5---------------5---------------5---------------5--------------------------------------
|------5---4-----------5---4-----------5---4-----------5---4--------------------------------
|--3-----3---------3-----3---------3-----3---------3-----3----------------------------------


Guitar 2                           V.........................
|-------------------------------------------------------------------------------------------
|----------------------------------3-6-5-8...------3-6-5-8...-------------------------------
|-------------------------------------------------------------------------------------------
|-------------------------------------------------------------------------------------------
|-------------------------------------------------------------------------------------------
|-------------------------------------------------------------------------------------------

Guitar 3                           V..........................
|-------------------------------------------------------------------------------------------
|-------------------------------------------------------------------------------------------
|----------------------------------3-7-6-10...-----3-7-6-10...------------------------------
|-------------------------------------------------------------------------------------------
|-------------------------------------------------------------------------------------------
|-------------------------------------------------------------------------------------------
End FIGURE 1>
____________________________________________________________________________________________

All Guitars
        PM...        V VPM..       PM...        V VPM..      PM...        V VPM..    
|-------------------------------------------------------------------------------------------
|-------------------------------------------------------------------------------------------
|-------------------------------------------------------------------------------------------
|--7-6-5..5-5--5-------3..----7-6-5..5-5--5-------3..---7-6-5..5-5--5-------3..---7-6-5..5-5
|--7-6-5..5-5----5---4--------7-6-5..5-5----5---4-------7-6-5..5-5----5---4-------7-6-5..5-5
|--5-4-3..3-3------3------55--5-4-3..3-3------3------55-5-4-3..3-3------3------55-5-4-3..3-3

____________________________________________________________________________________________
All Guitars
         V VPM..       PM...           V V        PM...    
|-------------------------------------------------------------------------------------------
|-------------------------------------------------------------------------------------------
|-------------------------------------------------------------------------------------------
|--5-------3..----7-6-5/2--6-5--6-5----------7-6-5/2--6-5--6-5------------------------------
|----5---4--------7-6-5/2------------5..4....7-6-5/2------------5-4-------------------------
|------3------55--5-4-3/0--------------------5-4-3/0----------------5--4--------------------
                  Time:1:08*
____________________________________________________________________________________________

Guitar 1
 PM...                                                  PM...       V VPM..       PM...
|-------------------------------------------------------------------------------------------
|-------------------------------------------------------------------------------------------
|-------------------------------------------------------------------------------------------
|--5/2--6-5--6-5----------7-6-5/2--6-5--6-5------------5-5-5--5-------3..----7-6-5..5-5----
|--5/2------------5..4....7-6-5/2------------5-4-------5-5-5----5---4--------7-6-5..5-5----
|--3/0--------------------5-4-3/0----------------5..4..3-3-3------3------55--5-4-3..3-3----

(FIGURE 1 plays until the last note. If you have the song, you'll know when to play.)

____________________________________________________________________________________________

All Guitars
               PM...               V VPM..       PM...                  PM...
|-------------------------------------------------------------------------------------------
|-------------------------------------------------------------------------------------------
|-------------------------------------------------------------------------------------------
|--5------3..----7-6-5..5-5--5-------3..----7-6-5..5-5--5-------3..7-6-5/2--6-5--6-5--------
|----5---4-------7-6-5..5-5----5---4--------7-6-5..5-5----5---4----7-6-5/2------------5..4..
|------3-----55--5-4-3..3-3------3------55--5-4-3..3-3------3------5-4-3/0------------------
							        Time0:31*
____________________________________________________________________________________________

All Guitars
 PM..........                      PM......                 PM...   PM...
|-------------------------------------------------------------------------------------------
|-------------------------------------------------------------------------------------------
|-------------------------------------------------------------------------------------------
|--7-6-5--5-5--6-5--6-5--------------5--5-5--6-5--6-5--------------5--5-5--6-5--6-5---------
|--7-6-5--5-5------------5-4---------5--5-5------------5..4..------5--5-5------------5..4..3
|--5-4-3--3-3----------------5..4..--3--3-3-------------------5-4--3--3-3-------------------

|-------------------------------------------------------------------------------------------
|-------------------------------------------------------------------------------------------
|-------------------------------------------------------------------------------------------
|----5lr------------------------------------------------------------------------------------
|--..5lr------------------------------------------------------------------------------------
|----3lr------------------------------------------------------------------------------------

____________________________________Tabbed by Andrew Touesnard______________________________

 
 
Corrosion Of Conformity - These Shrouded Temples Tab :: indexed at Ultimate Guitar.
These Shrouded Temples tabs @ 911Tabs
People who played Corrosion Of Conformity - These Shrouded Temples Tab also played these songs by Corrosion Of Conformity:
Stare Too Long Chords, Shelter Chords, Stare Too Long Tab, Albatross Tab, In The Arms Of God Tab, Clean My Wounds Tab

Quick tip, so you can enjoy These Shrouded Temples Tab even more:

You might want to transpose the song if it is too high or too low for you to sing. Just click the desired option while playing a song and all the chords will automatically be transponded into a new key.

Show us your talent, perform These Shrouded Temples Tab!

Here you can post a video or audio performance. Tell me more ...
Where can we find your performance? Tell me more ...
Your comment:
Please, log in to post your performance.