Artists by letter: A B C D E F G H I J K L M N O P Q R S T U V W X Y Z 0-9

 
Pearls Before Swine Tab
Band- Corrosion Of Conformity
Song- Pearls Before Swine

TUNING: Tune 1 whole step down (D)

BASS LINE:
F |------------------------------------------------------------------------|
C |-------5b-----------------------5b--------------------------------------|
G |-5h7-------7--5-7--------5h7-------7---5-7------------------------------|
D |------0-----------6-5-3-------0-------------6-5-3-----------------------|

d |------------------------------17~~~~~-----------------------------------|
A |-15b~~~~~~--------------1412-------------------------------------------|
F |------------------1412-------------------------------------------------|
C |------------12h14----------------------12h14-12-------------------------|
G |-------------------------------------------------1412-10-12/14-10------|
D |------------------------------------------------------------------------|

d |------------------------------------------------------------------------|
A |--15b~~~~------15-------------------------------------------------------|
F |----------14b~~~--14b-14-12---------------------------------------------|
C |------------------------------------------------------------------------|
G |------------------------------------------------------------------------|
D |------------------------------------------------------------------------|

This is played at the, "...father forgive me..." part:
d |------------------------------------------------------------------------|
A |------------------------------------------------------------------------|
F |---------------4--------------------------------------------------------|
C |----6-------6--6---6---------6-----64-----4----------6-----------------|
G |--7---7-----7------7------7-----7-------5-----5/7-7-7----7--------------|
D |------------------------------------------------------------------------|

GUITAR 1:
This is played at the, "...time has gone..." part:
d |------------------------------------------------------------------------|
A |------------------------------------------------------------------------|
F |------------------------------------------------------------------------|
C |---------5b--------------------------5b---------------------------------|
G |--5h7--------7-----5h7---------5h7------7----5h7------------------------|
D |-------0----------------6-5-3------0--------------6-5-3-----------------|

GUITAR 2:
d |------------------------------------------------------------------------|
A |------------------------------------------------------------------------|
F |------------------------------------------------------------------------|
C |--6---------------------------6-----------------------------------------|
G |--7---------------------------7-----------------------------------------|
D |--0---------------------------0-----------------------------------------|

D |------------------------------------------------------------------------|
A |------------------------------------------------------------------------|
F |------------------------------------------------------------------------|
C |-7--7----8----------------3--2---3---2----------------------------------|
G |-7--7----8----------------3--2---3---2----------------------------------|
D |-5--5--3-6--3h5-6-6p5-3-0-1--0---1---0----------------------------------|

d |-21b----22b-----20-17----17---------------------------------------------|
A |----------------------20----20b~~~~~------------------------------------|
F |--------------------------------------14-12---------14-12----12b--------|
C |---------------------------------------------12-12b--------14-----------|
G |------------------------------------------------------------------------|
D |------------------------------------------------------------------------|

d |------------------------------------------------------------------------|
A |-13-------------------13-15b--h15b-h15b---13----------------------------|
F |----12b~~~~-----12-14------------------------14-12-14b-p12--------------|
C |------------/14--------------------------------------------14-----------|
G |------------------------------------------------------------------------|
D |------------------------------------------------------------------------|

d |------------------------------------------------------------------------|
A |------------------------------------------------------------------------|
F |------------------------------------------------------------------------|
C |-15-14-12-14----12------15p14p12----------------------------------------|
G |-------------15------------------15---1512-----------------------------|
D |------------------------------------------------------------------------|

d |------------------------------------------------------------------------|
A |------------------------------------------------------------------------|
F |-----------5----------------------5-------------------------------------|
C |--7--5-----5--5-5--7-----7--5-----5--5-5--7-----------------------------|
G |--7--5-----3--5-5--7-----7--5-----3--5-5--7-----------------------------|
D |--5--3--------3-3--5-----5--3--------3-3--5-----------------------------|

d |------------------------------------------------------------------------|
A |------------------------------------------------------------------------|
F |------------------------------------------------------------------------|
C |-------------------------------------5--5/7-----------------------------|
G |--/5------/8-7----------/5----/8-7-------------------------------------|
D |-----------------3--3/5-------------------------------------------------|

 
 
Corrosion Of Conformity - Pearls Before Swine Tab :: indexed at Ultimate Guitar.
Pearls Before Swine tabs @ 911Tabs
People who played Corrosion Of Conformity - Pearls Before Swine Tab also played these songs by Corrosion Of Conformity:
Stare Too Long Chords, Shelter Chords, Stare Too Long Tab, Albatross Tab, In The Arms Of God Tab, Clean My Wounds Tab

Quick tip, so you can enjoy Pearls Before Swine Tab even more:

YourChords.com Guitar Chords and Tabs Archive is currently indexing over 240'000 songs from 21'000+ different artists. And new chords just keep on coming in, so you will surely never run out of them.

Show us your talent, perform Pearls Before Swine Tab!

Here you can post a video or audio performance. Tell me more ...
Where can we find your performance? Tell me more ...
Your comment:
Please, log in to post your performance.