Artists by letter: A B C D E F G H I J K L M N O P Q R S T U V W X Y Z 0-9

 
My Grain Tab
Band- Corrosion Of Conformity
Song- My Grain

TUNING: Tune 1 whole step down (D)

INTRO:
d |--------------------------------------------------|
A |--------------------------------------------------|
F |--------------------------------------------------|
C |--------------------------------------------------|
G |-5--6--7------------------------------------------|
D |----------5---------------------------------------|

VERSE:
d |--------------------------------------------------|
A |--------------------------------------------------|
F |--------------------------------------------------|
C |--------------------------------------------------|
G |-5--6--7------------------------------------------|
D |----------5---5h7p5h7p5--3--3--0------------------| Repeat

Before CHORUS:
d |--------------------------------------------------|
A |------3b------------------------------------------|
F |-0--2-----5--2------------------------------------|
C |--------------------------------------------------|
G |--------------------------------------------------|
D |--------------------------------------------------|

CHORUS:
d |--------------------------------------------------|
A |--------------------------------------------------|
F |--------------------------------------------------|
C |--------------------------------------------------|
G |-------5--3--0------------------------------------|
D |-3--5---------------------------------------------| x3

d |--------------------------------------------------|
A |--------------------------------------------------|
F |--7-----------------------------------------------|
C |--7---5-------------------------------------------|
A |--5---5-------------------------------------------|
D |------3-------------------------------------------|

Before 2nd CHORUS:
d |--------------------------------------------------|
A |------3b------------------------------------------|
F |-0--2-----5--2--/5--------------------------------|
C |--------------------------------------------------|
G |--------------------------------------------------|
D |--------------------------------------------------|

After 2nd CHORUS:
The bass part
d |--------------------------------------------------|
A |--------------------------------------------------|
F |---------------7-----10---------------------------|
C |--7-----10-----7-----10---------------------------|
G |--7-----10-----5-----8----------------------------|
D |--5-----8-----------------------------------------|

GUITAR 1:
d |--------------------------------------------------|
A |--------------------------------------------------|
F |---------------7-5--------------------------------|
C |-7--77p5---5------7--7-7-7-7p5---5---------------|
G |-----------7---------------------7----------------|
D |--------------------------------------------------| x4

GUITAR 2:
d |------------------10-8----------------------------|
A |-10--10--10_8---8-------10--10-10-10-10p8----8----|
F |--------------9---------------------------10------|
C |--------------------------------------------------|
G |--------------------------------------------------|
D |--------------------------------------------------|

 
 
Corrosion Of Conformity - My Grain Tab :: indexed at Ultimate Guitar.
My Grain tabs @ 911Tabs
People who played Corrosion Of Conformity - My Grain Tab also played these songs by Corrosion Of Conformity:
Stare Too Long Chords, Shelter Chords, Stare Too Long Tab, Albatross Tab, In The Arms Of God Tab, Clean My Wounds Tab

Quick tip, so you can enjoy My Grain Tab even more:

If you don't really know how to deal with "Absus4" chord and his equally confusing brothers, just put the mouse cursor over them and you will be shown a helpful chord diagram.

Show us your talent, perform My Grain Tab!

Here you can post a video or audio performance. Tell me more ...
Where can we find your performance? Tell me more ...
Your comment:
Please, log in to post your performance.