Artists by letter: A B C D E F G H I J K L M N O P Q R S T U V W X Y Z 0-9

 
Dance Of The Dead Tab
Band:  Corrosion Of Conformity
Album: Blind
Song:  Dance Of The Dead

Copyright (c)  (Road Runner) (1991)
Version 1.0 - (24/08/05)

Transcribed By: Steve
Email:          [email protected]


.  - palm mute           /  - slide up to
  - slide down to       ~  - vibrato
h  - hammer on           b  - Bend
p  - pull off            Suffixes for bend
t  - tap                 f  - full bend    h - half bend
ph - pinched harmonic    q  - quarter bend t - tap bend
*  - see comment         ^  - Hold bend    r release bend
x  - Stuccatto           ~  - vibrato bend
,  - slight palm mute    () - ghost note, sustained note
"  - tremolo note         - Trill

Tunning D G C F A D
 

 Intro

  Guitar 1
             h
E[-----------------------|
B[-------8-7-8p7-trill---|
G[-----9-----------------|
D[-7/9-------------------|
A[-5/7-------------------|
E[-----------------------|
 [Guitar 2   h 
E[-----------------------|
B[-----------------------|
G[-----------------------|
D[-7/9---54-5p4-trill---|
A[-5/7-7-----------------|
E[-----------------------|

  Guitar 1
E[----------------------------------------------|
B[----------------------------------------------|
G[----------------------------------------------|
D[-7/9-9-----7/9-9---7---7/9-9-----7/9-9---7----|
A[-5/7-7-87-5/7-7-8-5-7-5/7-7-87-5/7-7-8-5-7-|
E[-------65-------6---5-------65-------6---5-|
 [Guitar 2
E[----------------------------------------------|
B[----------------------------------------------|
G[----------------------------------------------|
D[-7/9-------------------(9)--------------------|
A[-5/7-------------------(7)--------------------|
E[----------------------------------------------|

   Guitar 1
  [--------------------------PM-----------------------------]
E[-----------------------------------------------------------|
B[-----------------------------------------------------------|
G[-----------------------------------------------------------|
D[-----------------------------------------------------------|
A[-----------------------------------------------------------|
E[-0--000-0--0-0-0-0-0-0-0-0-0-0-0-0-0-0-0-0-0-0-0-0-0-0-0-0-|
 [ Guitar 2
 [[--------------PM---------------]  h     h     h     h     
E[-----------------------------------------------------------|
B[-----------------------------------------------------------|
G[-----------------------------------------------------------|
D[-----------------------------------------------------------|
A[--------------------------------/5-777-5-777-5-777-5-777---|
E[-0--000-0--0-0-0-0-0-0-0-0-0-0-0---------------------------|

 Main Riff

E---------------------------------------------|
B---------------------------------------------|
G---------------------------------------------|
D-7/9-9-----7/9-9---7---7/9-9-----7/9-9---7---|
A-5/7-7-87-5/7-7-8-5-7-5/7-7-87-5/7-7-8-5-7-|
E-------65-------6---5-------65-------6---5-|
                                   [-----PM-----]                                   
E------------------------------------------------|
B------------------------------------------------|
G------------------------------------------------|
D-7/9-9-----7/9-9---7---7/9-9-------7-7777-8-8-8-|
A-5/7-7-87-5/7-7-8-5-7-5/7-7-87/8-5-5555-6-6-6-|
E-------65-------6---5-------65/6--------------|

 Verse

  ~~~~~~~~~~~~~~~~~~~~~~~~~~~~~~~                   [--PM--]
E----------------------------------------------------------------|
B----------------------------------------------------------------|
G/9-------7-------5-------4---/54-------------------------7/-|
D----------------------------------------------------------------|
A/7-------5-------3-------2---/32---7----(9)-----------7--5/-|
E-------------------------------------3-0----(0)-----0000000-----|
  ~~~~~~~             ~~~~~~~~~~~
E----------------------------------------------------------|
B----------------------------------------------------------|
G-9------9/12-12/15-x5-----4--/5-4-----------------------|
D------------------------------------7/9-9-----7/9-9---7---|
A-7------7/10-10/13-x3-----2--/3-2-5/7-7-87-5/7-7-8-5-7-|
E------------------------------------------65-------6---5-|

 Chorus

E-------------------------------|
B-------------------------------|
G-12----11---7/9-9-99-7/9-9-99-|
D-12----11---7/9-9-99-7/9-9-99-|
A-10----9----5/7-7-77-5/7-7-77-|
E-------------------------------|


E-------------------------------|
B-------------------------------|
G-12----11---7/9-9-99-7/9-9-99-|
D-12----11---7/9-9-99-7/9-9-99-|
A-10----9----5/7-7-77-5/7-7-77-|
E-------------5/7-7-77-5/7-7-77-|

   [-PM-][-PM-] [------PM-----]
E------------------------------------------------|
B------------------------------------------------|
G------------------------------7/9-9-99-7/9-9-99-|
D-5-----5------5-----54---4/5-7/9-9-99-7/9-9-99-|
A-3-33333-33332-222-32-x-2/3-5/7-7-77-5/7-7-77-|
E------------------------------------------------|

E--------------------------------|
B--------------------------------|
G--------------7/9-9-99-7/9-9-99-|
D-5-----4------7/9-9-99-7/9-9-99-|
A-5-----4------5/7-7-77-5/7-7-77-|
E-3-----2------------------------|

 After Chorus

  Guitar 1
             h     
E[----------------|
B[-------8-7-8p7--|
G[-7-9-9----------|
D[----------------|
A[----------------|
E[----------------|
 [Guitar 2   h
E[----------------|
B[----------------|
G[----------------|
D[-7/9---54-5p4--|
A[-5/7-7----------|
E[----------------| Rpt

  Guitar 1
E[----------------------------------------------|
B[----------------------------------------------|
G[----------------------------------------------|
D[-7/9-9-----7/9-9---7---7/9-9-----7/9-9---7----|
A[-5/7-7-87-5/7-7-8-5-7-5/7-7-87-5/7-7-8-5-7--|
E[-------65-------6---5-------65-------6---5--|
 [Guitar 2
E[----------------------------------------------|
B[----------------------------------------------|
G[----------------------------------------------|
D[-7/9------(9)--------7-7/9---------(9)------7-|
A[-5/7------(7)--------5-5/7---------(7)------5-|
E[----------------------------------------------|

  Guitar 1
                                    [-----PM-----]                                   
E[------------------------------------------------|
B[------------------------------------------------|
G[------------------------------------------------|
D[-7/9-9-----7/9-9---7---7/9-9-------7-7777-8-8-8-|
A[-5/7-7-87-5/7-7-8-5-7-5/7-7-87/8-5-5555-6-6-6-|
E[-------65-------6---5-------65/6--------------|
 [Guitar 2
 [                                  [-----PM-----]
E[------------------------------------------------|
B[------------------------------------------------|
G[------------------------------------------------|
D[-7/9------(9)--------7-7/9---------7-7777-8-8-8-|
A[-5/7------(7)--------5-5/7---------5-5555-6-6-6-|
E[------------------------------------------------|

 Rpt Verse
 Rpt Chorus (play G and F# power chords octave down)

   [-PM-][-PM-] [------PM-----]
E------------------------------------------------|
B------------------------------------------------|
G------------------------------7/9-9-99109-9-99-|
D-5-----5------5-----54---4/5-7/9-9-99109-9-99-|
A-3-33333-33332-222-32-x-2/3-5/7-7-77-87-7-77-|
E------------------------------------------------|


         [---PM--]
E-----------------------------------|
B-----------------------------------|
G-----------------7/9-9-99-7/9-9-99-|
D-5-----4---------7/9-9-99-7/9-9-99-|
A-5-----4---------5/7-7-77-5/7-7-77-|
E-3-----2-2-2-2-2-------------------|

  Guitar 1
             h     
E[----------------|
B[-------8-7-8p7--|
G[-7-9-9----------|
D[----------------|
A[----------------|
E[----------------|
 [Guitar 2   h
E[----------------|
B[----------------|
G[----------------|
D[-7/9---54-5p4--|
A[-5/7-7----------|
E[----------------| Rpt

                                                  To Feedback                                
E-------------------------------------------------------------------|
B-------------------------------------------------------------------|
G-------------------------------------------------------------------|
D-2-----------------------(2)---------------------------------------|
A-2-----------------------(2)---------------------------------------|
E-0-----------------------(0)---------------------------------------|

 Use vibraro throughout
  
E-------------------------------------------------------------------|
B-------------------------------------------------------------------|
G-------------------------------------------------------------------|
D-------------------------------------------------------------------|
A-7-------------------------------------2------------------3--------|
E--------------------2----------------------------------------------|

  
E--------------------------------------------------------|
B--------------------------------------------------------|
G--------------------------------------------------------|
D--------------------------------------------------------|
A---------------------------------------1----------------|
E-4------------------1-----------------------------------|

  [-----PM----]
E----------------------------|
B----------------------------|
G----------------------------|
D----------------------------|
A-2-2-2-2-2-2-2----(2)------|
E--0-0-0-0-0-0----(0)------|

 Guitar solo

  Guitar 1
           ~~~~     ~~~~   h               ~~~~~~~~~~~~~~~~~~~~~
E[-------------15b---------------------------------------------------|
B[-15br15-11-------12---12-13p1211-12p11----------------------------|
G[----------------------------------------8b----8-8r----(8)----------|
D[-------------------------------------------------------------------|
A[-------------------------------------------------------------------|
E[-------------------------------------------------------------------|
 [Guitar 2
 [                                         ~~~~~~~~~~~~~~~~~~~~~~
E[-------------------------------------------------------------------|
B[-------------------------------------------------------------------|
G[----------------------------------------11b---11-11r--(11)---------|
D[-------------------------------------------------------------------|
A[-------------------------------------------------------------------|
E[-------------------------------------------------------------------|

              ~~~~~~~~ph
E------10----------------------|
B-10b-----8-------10--10br8----|
G-----------9---------------8--|
D-------------9----------------|
A------------------------------|
E------------------------------|

  Guitar 1
     ~~~~~~~~~~~~~~~~~~~~~~~~~~~~~~~~~~
E[----------------------------------------|
B[----------------------------------------|
G[-pb14r-12--pb13r-11--pb11r-8--/9-------|
D[----------------------------------------|
A[----------------------------------------|
E[----------------------------------------|
 [Guitar 2
 [    ~~~~~~~~~~~~~~~~~~~~~~~~~~~~~~~~~~
E[----------------------------------------|
B[----------------------------------------|
G[-pb11r-9---pb10r-7---pb8r--4--/5-------|
D[----------------------------------------|
A[----------------------------------------|
E[----------------------------------------|
 [Guitar 3
 [                           ~~~~~~~~~~
E[----------------------------------------|
B[---------------------------7--/8-------|
G[----------------------------------------|
D[----------------------------------------|
A[----------------------------------------|
E[----------------------------------------|

 Backing for guitar solo

E--------------------------------|
B--------------------------------|
G---------------------------7-7--|
D-9-----------(9)-----------7-7--|
A-7-----------(7)-----------7-7--|
E--------------------------------| Rpt 3 X
             PM
E--------------------------------|
B--------------------------------|
G---------------------------7-7--|
D-9-------------9-----------7-7--|
A-7-------------7-----------7-7--|
E-------------0------------------| Rpt 5 X

                [-------------------------PM-------------------------]
E---------------------------------------------------------------------|
B---------------------------------------------------------------------|
G---------------------------------------------------------------------|
D-7-777-8-8-8-9------------------------------------------------------|
A-5-555-6-6-6-7------------------------------------------------------|
E---------------0-000-0-000-0-000-0-000-0-000-0-000-0-000-0-000-0-000-|

 3rd Verse

E--------------------------|
B--------------------------|
G-9-----------------------|
D-9-----------------------|
A-7-----------------------|
E--------------------------|

  Guitar 1
E[--------------------------|
B[--------------------------|
G[--------------------------|
D[-7/9---------------------|
A[-5/7---------------------|
E[--------------------------|
 [
 [Guitar 2
 [    [--------PM---------]
E[--------------------------|
B[--------------------------|
G[--------------------------|
D[-7/9----------------------|
A[-5/7----------------------|
E[-----0-00-0-00-0-00-0-00--|

 Both guitars
     [--------PM---------]
E--------------------------|
B--------------------------|
G--------------------------|
D-7/9----------------------|
A-5/7----------------------|
E-----0-00-0-00-0-00-0-00--| 

     [---PM----]
E---------------|
B---------------|
G---------------|
D-7/9-----------|
A-5/7-----------|
E-----0-00-0-00-| Rpt 2 X

  Guitar 1
   [---------PM-----------]
E[------------------------------------|
B[-------------------8p7--------------|
G[-7---7-9-7---9-7-9-----7-7--8--9---|
D[---9-------9------------------------|
A[------------------------------------|
E[------------------------------------|
 [Guitar 2
 [ [---------PM-----------]
E[------------------------------------|
B[-------------------8p7--------------|
G[-7---7-9-7---9-7-9------------------|
D[---9-------9-------------7-/8--9---|
A[-------------------------5-/6--7---|
E[-------------------------5-/6--7---|


 Verse

  ~~~~~~~~~~~~~~~~~~~~~~~~~~~~~~~                   [--PM--]
E----------------------------------------------------------------|
B----------------------------------------------------------------|
G/9-------7-------5-------4--------------------------------7/-|
D/9-------7-------5-------4----------9----(9)--------------5/-|
A/7-------5-------3-------2----------7----(7)-----------7--5/-|
E---------------------------------------0----(0)-----0000000-----|
  ~~~~~~~             ~~~~~~~~~~~
E---------------------------------------------------------------|
B---------------------------------------------------------------|
G-9------9/12-12/15-x5-----4----------------------------------|
D-9------9/12-12/15-x5-----4----------------------------------|
A-7------7/10-10/13-x3-----2--/3-2---7--------7-7-7-7-7-7-7-7-|
E------------------------------------3-0--------0-0-0-0-0-0-0-0-|

 Rpt Chorus 2 X

  Guitar 1
             h     
E[----------------|
B[-------8-7-8p7--|
G[-7-9-9----------|
D[----------------|
A[----------------|
E[----------------|
 [Guitar 2   h
E[----------------|
B[----------------|
G[----------------|
D[-7/9---54-5p4--|
A[-5/7-7----------|
E[----------------| Rpt

  Guitar 1
  [---------PM-----------]
E[------------------------------|
B[-------------------8p7--------|
G[-7---7-9-7---9-7-9-----7-9---|
D[---9-------9------------------|
A[------------------------------|
E[------------------------------|
 [Guitar 2
 [ [---------PM-----------]
E[------------------------------|
B[-------------------8p7--------|
G[-7---7-9-7---9-7-9------------|
D[---9-------9-------------9---|
A[-------------------------7---|
E[------------------------------|




END

 
 
Corrosion Of Conformity - Dance Of The Dead Tab :: indexed at Ultimate Guitar.
Dance Of The Dead tabs @ 911Tabs
People who played Corrosion Of Conformity - Dance Of The Dead Tab also played these songs by Corrosion Of Conformity:
Stare Too Long Chords, Shelter Chords, Stare Too Long Tab, Albatross Tab, In The Arms Of God Tab, Clean My Wounds Tab

Quick tip, so you can enjoy Dance Of The Dead Tab even more:

After the registration (which takes just 10 seconds, remember?) you will be able to use your profile - your very own piece of YourChords.com.

Show us your talent, perform Dance Of The Dead Tab!

Here you can post a video or audio performance. Tell me more ...
Where can we find your performance? Tell me more ...
Your comment:
Please, log in to post your performance.