Artists by letter: A B C D E F G H I J K L M N O P Q R S T U V W X Y Z 0-9

 
Buried Tab
Band- Corrosion Of Conformity
Song- Buried

TUNING: Tune 1  whole steps down (C# Tuning)
                                 
INTRO:
C# |---------------------------------------------------------|
G# |---------------------------------------------------------|
E  |---------------------------------------------------------|
B  |---------------------------------------------------------|
F# |-----7--5---------5--------------2-----------------------|
C# |--------------7----------7---3---0-----------------------|

C# |---------------------------------------------------------|
G# |---------------------------------------------------------|
E  |---------------------------------------------------------|
B  |---9----8-----9\---------------------5--------7b-5--75-|
F# |---9----8-----9\------------5-h-7---------7-------------|
C# |---7----6-----7\-----0--0-------------------------------|
                               [PALM MUTED]

C# |---------------------------------------------------------|
G# |---------------------------------------------------------|
E  |---------------------------------------------------------|
B  |---9----8-----9\----------------------------------------|
F# |---9----8-----9\------2---2-----22---------------------|         
C# |---7----6-----7\------0---0-----00---------------------|
			   [PALM MUTED--] Repeat 
                                                
VERSE:
C# |---------------------------------------------------------|
G# |---------------------------------------------------------|
E  |---------------------------------------------------------|
B  |---9----8-----9\----------------------------------------|
F# |---9----8-----9\-----2----2-----------------------------|
C# |---7----6-----7\-----0----0-----------------------------|
                         [PALM MUTED]

C# |---------------------------------------------------------|
G# |---------------------------------------------------------|
E  |---------------------------------------------------------|
B  |---9----8-----9\----------------------------------------|
F# |---9----8-----9\-----2--2--2--2--2--2--2--2-------------|        
C# |---7----6-----7\-----0--0--0--0--0--0--0--0-----3~~~~~~-|
                                      Repeat                             

C# |---------------------------------------------------------|
G# |-----------------------------------------------3---5-----|
E  |----------4---------3----------4-------------------------|    
B  |----2---------2----------2-----------2-------------------|      
F# |---------------------------------------------------------|
C# |---------------------------------------------------------| x7
				
                
C# |---------------------------------------------------------|
G# |---------------------------------------------------------|
E  |-----------------------------------------7/9--9--9-------|
B  |-----------------------------------------7/9--9--9-------|
F# |-----------------------------------------5/7--7--7-------|
C# |---5-4-5-4-5-4---0---5-4-5-4-5-4---0---------------------| x6

This is played before "Time waits for no one" and only this time.
C# |---------------------------------------------------------|
G# |---------------------------------------------------------|
E  |-----------------7----------9---9------------------------|
B  |-----------------7----------9---9------------------------|
F# |----2------------5----------7---7------------------------|
C# |----0------0---------0-----------------------------------|

Repeat the Verse then end with this
C# |---------------------------------------------------------|
G# |---------------------------------------------------------|
E  |---------------------------------------------------------|
B  |---------------------------------------------------------|
F# |---2--2----2--2--2---------------------------------------|
C# |---0--0----0--0--0----0--0-----12\----------------------|
     [PALM MUTED-----------------------]
                   
PRE-SOLO:
C# |---------------------------------------------------------|
G# |---------------------------------------------------------|
E  |---------------------------------------------------------|
B  |----------------5-----------7b--5----7---5---------------|
F# |---7---7--7--------7--7-----------------------7----------|
C# |---0---------------------------------------------0-------|

C# |---------------------------------------------------------|
G# |---------------------------------------------------------|
E  |---9---7-------7-----------------------------------------|
B  |------------9-------9---5----7b--5----7---5--------------|
F# |-----------------------------------------------7---------|
C# |-----------------------------------------------0---------|

SOLO:
RHYTHM GUITAR:
C# |---------------------------------------------------------|
G# |---------------------------------------------------------|
E  |---------------------------------------------------------|
B  |---------------------------------------------------------|
F# |---2---2-----2--2--2---7---5---5-----------2-------------|
C# |---0---0-----0--0--0--------------7-----7----3----0------|  x5
       [PALM MUTED-----]              

C# |---------------------------------------------------------|
G# |---------------------------------------------------------|
E  |---------------------------------------------------------|
B  |---------------------------------------------------------|
F# |---2---2---2----5----2---2---2---2---2----5-----2--------|
C# |---0---0---0----3----0---0---0---0---0----3-----0--------|
       [PALM MUTED----------------------------------]

C# |---------------------------------------------------------|
G# |---------------------------------------------------------|
E  |---------------------------------------------------------|
B  |---------------------------------------------------------|
F# |----7---5--------5---------------2-----------------------|
C# |-------------7---------7----3----0-----------------------|

OUTRO:
C# |---------------------------------------------------------|
G# |---------------------------------------------------------|
E  |---------------------------------------------------------|
B  |----------------5-----------7b--5----7---5---------------|
F# |---7---7--7--------7--7-----------------------7----------|
C# |---0---------------------------------------------0-------|

C# |---------------------------------------------------------|
G# |---------------------------------------------------------|
E  |---9---7-------7-----------------------------------------|
B  |------------9-------9---5----7b--5----7---5--------------|
F# |-----------------------------------------------7---------|
C# |-----------------------------------------------0---------|

C# |---------------------------------------------------------|
G# |---------------------------------------------------------|
E  |---------------------------------------------------------|
B  |---9----8-----9\----------------------------------------|
F# |---9----8-----9\-----2----2-----------------------------|
C# |---7----6-----7\-----0----0-----------------------------|
                         [PALM MUTED]

C# |---------------------------------------------------------|
G# |---------------------------------------------------------|
E  |---------------------------------------------------------|
B  |---9----8-----9\----------------------------------------|
F# |---9----8-----9\-----2--2--2--2--2--2--2--2-------------|        
C# |---7----6-----7\-----0--0--0--0--0--0--0--0-----3~~~~~~-|

 
 
Corrosion Of Conformity - Buried Tab :: indexed at Ultimate Guitar.
Buried tabs @ 911Tabs
People who played Corrosion Of Conformity - Buried Tab also played these songs by Corrosion Of Conformity:
Stare Too Long Chords, Shelter Chords, Stare Too Long Tab, Albatross Tab, In The Arms Of God Tab, Clean My Wounds Tab

Quick tip, so you can enjoy Buried Tab even more:

You might want to transpose the song if it is too high or too low for you to sing. Just click the desired option while playing a song and all the chords will automatically be transponded into a new key.

Show us your talent, perform Buried Tab!

Here you can post a video or audio performance. Tell me more ...
Where can we find your performance? Tell me more ...
Your comment:
Please, log in to post your performance.