Artists by letter: A B C D E F G H I J K L M N O P Q R S T U V W X Y Z 0-9

 
Stacked Actors Tab
Person: James McLafferty

song: Stacked Actors (improved)

artist: Foo Fighters

tab: Transcribed by: James McLafferty
   Email: [email protected]
   Artist: Foo Fighters 
   Song Title: Stacked Actors 
   Released: October 1999 
   Album- There is Nothing Left to Lose 
   Tabbed: 24-1-00
   
The original by gavin helped a lot, and the song is a lot harder 
than it sounds, but its in Drop A. The Sixth string (low E) is tuned
down to an A. If you try and play a long with your guitar tuned to D
or anything else it sounds wrong. There a few corrections. thanks to
Gavin
for the original.

   Drop  Tuning 
Key : {4} - this is a harmonic on the fourth fret of the drop A it 
            is a C#. If you can't do that you can play the note in 
            brackets like this (6 6)   
    
      Intro (riff 1) just Gtr1 (Dave) 
    x2 
   e|---------------------------------------------------------| 
   B|---------------------------------------------------------| 
   G|---------------------------------------------(6-6)-------| 
   D|---------------------------------------------------------| 
   A|---------------------------------------------------------| 
   A|--0--0--3-553/--10--10--3-553/--8--8--77653-{4-4}-4-6653| 
 
   
      (riff2) gtr's 1 and 2 and bass 
   e|---------------------------------------------------------| 
   B|---------------------------------------------------------| 
   G|---------------------------------------------(6-6)-------| 
   D|---------------------------------------------------------| 
   A|--0--0--3-553/--10--10--3-553/--8--8--77653-------4-6653| 
   A|--0--0--3-553/--10--10--3-553/--8--8--77653-{4-4}-4-6653| 
   
    (riff 2a) 
   e|--------------------------------------------------------- 
   B|--------------------------------------------------------- 
   G|--------------------------------------------------------- 
   D|--------------------------------------------------------- 
   A|--0--0--3-553/--10--10--3-553/--8--8--77653------------- 
   A|--0--0--3-553/--10--10--3-553/--8--8--77653------------- 

     (the bass riff at the end of 2a)   
   G|--------------------------------------------------------- 
   D|--------------------------------------------------------- 
   A|--0-66-5-3----------------------------------------------- 
   E|--------------------------------------------------------- 





   Verse (riff 3) 
   Guitar 1 plays: 
    
       Am7       
   e|----3----3/5-53-----|---3-3-3-6-6-5-3-------------------- 
   B|----1----1/3-31-----|---1-1-1-4-4-3-1-------------------- 
   G|----0----0/0-0-----|---0-0-0-0-0-0-0-------------------- 
   D|--2-2----2/4-42-----|-2-2-2-2-5-5-4-2-------------------- 
   A|--0-0----3/5-53-----|-0-0-3-3/6 6-5-3-------------------- 
   A|---------------------|------------------------------------ 

   Guitar two plays this through a a tremolo pedal on fast
   e|-0-------------------------------------------------------- 
   B|-1-------------------------------------------------------- 
   G|-0-------------------------------------------------------- 
   D|-2-------------------------------------------------------- 
   A|-0-------------------------------------------------------- 
   A|---------------------------------------------------------- 
   
   Oh mirror mirror, your'e coming in clear 
   I'm finally somewhere in between 
   I'm impressed what a beautiful chest 
   I never meant to make a big scene 
   Will you resign to the latest design 
   You look so messy when you dress up in dreams 
   One more for hire, a wonderful liar 
   I think its time we should all become clean 


   Pre Chorus (riff 3) 
   e|---------------------------------------------------------- 
   B|---------------------------------------------------------- 
   G|---------------------------------------------------------- 
   D|---------------------------------------------------------- 
   A|--0-------------------0----------------------0------------ 
   A|--0-------------------0----------------------0------------ 
        Stack dead actors Stacked to the rafters Line up all 
   e|--------------------------------------------------------- 
   B|--------------------------------------------------------- 
   G|--------------------------------------------------------- 
   D|---0-------------------0--0--0--------------------------- 
   A|---0-------------------0--0--0--------------------------- 
   A|---0-------------------0--0--0--------------------------- 
   the bastards all I want is the truth 


   Chorus (riff 2 x2 riff 2a  x1) 

   Hey Hey now, can you fake it 
   Can you make it look like we want 
   Hey Hey now, can you take it 
   And we cry when they all die blonde 

   Verse 2 (riff 3) 

   little solo before second verse (guitar 2): 
   e|--2h3-0-2h3-2-0------------------------------------------ 
   B|------------------------------320------------------------ 
   G|-------------------------0-2--------0-2h4-2b-2b---------- 
   D|--------------------------------------------------------- 
   A|--------------------------------------------------------- 
   D|--------------------------------------------------------- 

   God bless, what a sensitive mess 
   Yeah but things aren't always what they seem 
   Your teary eyes, your famous disguise 
   Never knowing who to believe 
   See through yeah, but what do you do 
   When you're just another ageing drag queen 

   Pre Chorus (riff 4) 

   Chorus 2 (riff 2  x3 riff 2a x1) 

   Hey Hey now, can you fake it 
   Can you make it look like we want 
   Hey Hey now, can you take it 
   And we cry when they all die blonde 
   Stack dead actors. Stacked to the rafters 
   Line up all the bastards all I want is the truth 
   Stack dead actors. Stacked to the rafters 
   Line up all the bastards 
   And we cry when they all die blonde 

   Solo 
   Guitar 2 play this (riff 5) once on own then 4 times 
   with solo 
                x3           x1  
   e|------------|-------------------------------------------- 
   B|------------|-------------------------------------------- 
   G|------------|-------------------------------------------- 
   D|------------|-------------------------------------------- 
   A|-0---3553---|--6653-6653--------------------------------- 
   A|-0---3553---|--6653-6653--------------------------------- 

   Guitar 1: 
   e|--------------------------------------------------------- 
   B|--------------------------------------------------------- 
   G|--------------------------------------------------------- 
   D|------------------------------10-12-10-----10----12b----- 
   A|--10b10b10b10b10p9h1010b10b-12---------1212---12--------- 
   A|--------------------------------------------------------- 

   e|--------------------------------------------------------- 
   B|--------------------------------------------------------- 
   G|--------------------------------------------------------- 
   D|--------------------------------------------------------- 
   A|-12b12b12b12b12b12b12b12b12b12b12b12b12b12b/------------- 
   A|--------------------------------------------------------- 

   e|---------------------------------------------------------- 
   B|---------------------------------------------------------- 
   G|--1414-1212-1111--9-9-1414-1212-1111--9-9--1414-1212------ 
   D|---x-x--x-x--x-x--x-x--x-x--x-x--x-x--x-x---x-x--x-x----11 
   A|--1212-1010--9-9--7-7-1212-1010--9-9--7-7--1212-1010--9--- 
   A|---------------------------------------------------------- 

   e|---------------------------------------------------------- 
   B|---------------------------------------------------------- 
   G|-1414-1212--------14--1212-1111--9-9--14--1212------------ 
   D|--x-x--x-x----11---x---x-x--x-x--x-x---x---x-x----11------ 
   A|-1212-1010--9-----12--1010--9-9--7-7--12--1010--9----10b10b 
   A|---------------------------------------------------------- 

   e|---------------------------------------------------------- 
   B|---------------------------------------------------------- 
   G|---------------------------------------------------------- 
   D|---------------------------------------------------------- 
   A|-10b10b/--------------------------------------------------- 
   A|---------------------------------------------------------- 

   Chorus (riff 2 same as chrous 2 with out bass bit) 

   Outro (riff 2) Gtr 1 and 2 play the verse figure three times 
         A third gtr play this line below    

   e|---------------------------------------------------------- 
   B|---------------------------------------------------------- 
   G|----14--12--11--9--7------7/-9/--10/-------12--------- 
   D|---------------------------------------------------------- 
   A|---------------------------------------------------------- 
   A|---------------------------------------------------------- 
   
     The bass play this little fill 
   G|--------------------------------------------------------- 
   D|----/7-6-4-2---------------------------------------------- 
   A|---------------------------------------------------------- 
   D|---------------------------------------------------------- 
     
    It then ends on the tremolo'ed Am7

I am starting up a website soon i have loads of new tabs not on the net
It will have all the chilli peppers stuff complete with out mistakes 
and with bass. The complete bush collection without mistakes and with
bass
and a load of foo fighters. It will also have a lot other tab. If You
E mail me with your name, ill update you when its finished. (my email
is
[email protected]). Feel free to e-mail me for any reason.
Thanks



 
 
Foo Fighters - Stacked Actors Tab :: indexed at Ultimate Guitar.
Stacked Actors tabs @ 911Tabs

About the artist behind Stacked Actors Tab:

Foo Fighters is an American alternative rock band formed by singer/guitarist Dave Grohl in 1995.[1] Grohl formed the group as a one-man project after the dissolution of his previous band Nirvana in 1994. Prior to the release of Foo Fighters in 1995, Grohl drafted Nate Mendel (bass), William Goldsmith (drums), and Pat Smear (guitar) to complete the group. Goldsmith and Smear left after the recording of the group's second album The Colour and the Shape (1997). They were replaced by Taylor Hawkins and Franz Stahl, respectively, although Stahl left prior to the recording of the group's third album, There Is Nothing Left to Lose (1999).

Chris Shiflett joined as the band's second guitarist after the completion of There is Nothing Left to Lose. The band released its fourth album One by One in 2002. The group followed that release with the two-disc In Your Honor (2005), which was split between acoustic songs and harder-rocking material. Foo Fighters released its sixth album Echoes, Silence, Patience & Grace in 2007. Over the course of the band's career, three of its albums have won Grammy Awards for Best Rock Album, and all six have been nominated for Grammys.

Indexed at Wikipedia.

Show us your talent, perform Stacked Actors Tab!

Here you can post a video or audio performance. Tell me more ...
Where can we find your performance? Tell me more ...
Your comment:
Please, log in to post your performance.