Artists by letter: A B C D E F G H I J K L M N O P Q R S T U V W X Y Z 0-9

 
Erasereplace Tab
Standard Tuning
This is somewhat confusing with 2 guitars, but it's not
too hard to figure it out.
2 GUITARS

--INTRO--
--Guitar 1--
e||--------------------------------------------------||
B||-----------13--10b-------------------11--8b-------||
G||-------------------10-----------------------8-----|| 
D||-----10/13---------------------10/13--------------|| 
A||--11------------------11----12----------------10--|| 
E||--------------------------------------------------||

THEN

--Guitar 1--
e||--------------------------------------------------||
B||-----------13--10b-------------------11--8b-------||
G||-------------------10-----------------------8-----|| 
D||-----10/13---------------------10/13--------------|| 
A||--11------------------11----12----------------10--|| 
E||--------------------------------------------------||
--Guitar 2--
e||------------------------------||
B||------------------------------||
G||---------3------5------8------|| 
D||--6------3------5------8------|| 
A||--6--x8--1--x8--3--x8--6--x8--|| 
E||--4------1------3------6------||


--VERSE--
--Guitar 1--
e||-----------||
B||-----------||
G||-----------|| 
D||--8-8-8-8--|| x176! 
A||-----------|| 
E||-----------||
--Guitar 2--
e||------------------------||
B||------------------------||
G||--8---------5------9-X--|| 
D||--8--x5--8--5--x5--9-X--|| x6
A||--6------8--3------7-X--|| 
E||---------6--------------||

--Guitar 2--
e||----------------------------||
B||----------------------------||
G||--8------------5------9-----|| 
D||--8-x5--8------5-x10--9-x5--|| x3
A||--6-----8-x10--3------7-----|| 
E||--------6-------------------||

--Guitar 2--
e||------------------||
B||------------------||
G||--8------------5--|| 
D||--8-x5--8------5--|| 
A||--6-----8-x10--3--|| 
E||--------6---------||


--CHORUS--
--Both Guitars--
e||------------------------------||
B||------------------------------||
G||---------3------5------8------|| 
D||--6------3------5------8------|| x4
A||--6--x8--1--x8--3--x8--6--x8--|| 
E||--4------1------3------6------||

then Repeat --VERSE--
then Repeat --CHORUS--

THEN
--Guitar 1-- PLAY THIS 3 TIMES
e||------------------------------------------------------------------------||
B||------------------------------------------------------------------------||
G||---------------------------------------9-x8-----------------------------|| 
D||--10-x15---12--12---13-x8--12-12-10-10------10-10-10-12-12-12-7-x16-----||  
A||------------------------------------------------------------------------|| 
E||------------------------------------------------------------------------||
--Guitar 2-- Very low volume
e||-----------||
B||-----------||
G||------0----|| 
D||-----------|| x24
A||--3-5------|| 
E||-----------||

THEN
--Guitar 1--
e||--------------------------------------------------||
B||-----------13--10b-------------------11--8b-------||
G||-------------------10-----------------------8-----|| 
D||-----10/13---------------------10/13--------------|| x2
A||--11------------------11----12----------------10--|| 
E||--------------------------------------------------||
--Guitar 2-- Very low volume
e||-----------||
B||-----------||
G||------0----|| 
D||-----------|| x8
A||--3-5------|| 
E||-----------||

THEN
--Guitar 1--
e||------------------------------||
B||------------------------------||
G||---------3------5------8------|| 
D||--6------3------5------8------|| x2
A||--6--x8--1--x8--3--x8--6--x8--|| 
E||--4------1------3------6------||
--Guitar 2-- 
e||------||
B||------||
G||------|| 
D||--10--|| x32
A||------|| 
E||------||

--Guitar 1--
e||------------------------------||
B||------------------------------||
G||---------3------5------8------|| 
D||--6------3------5------8------|| x4
A||--6--x8--1--x8--3--x8--6--x8--|| 
E||--4------1------3------6------||
--Guitar 2--
e||----------------------------------------------------||
B||-------------13--10b-------------------11--8b-------||
G||---------------------10-----------------------8-----|| 
D||-------10/13---------------------10/13--------------|| x1
A||-10-11------------------11----12----------------10--|| 
E||----------------------------------------------------||

--Guitar 2-- 
e||------||
B||------||
G||------|| 
D||--10--|| x32
A||------|| 
E||------||

THEN
--Guitar 1--
e||------------------------------||
B||------------------------------||
G||------------------------------|| 
D||--13-x8--15-x8--17-x8--15-x8--|| 
A||------------------------------|| 
E||------------------------------||

--OUTRO--
--Guitar 1-- 
e||---------------||
B||---------------||
G||--17b-17-17-17-|| 
D||---------------|| x8
A||---------------|| 
E||---------------||

--Guitar 2--
e||------------------------------||
B||------------------------------||
G||---------3------5------8------|| 
D||--6------3------5------8------|| x4
A||--6--x8--1--x8--3--x8--6--x8--|| 
E||--4------1------3------6------||

--Guitar 2--
e||------------------------------------------||
B||------------------------------------------||
G||--8---------5------9-X----8--------5------|| 
D||--8--x5--8--5--x5--9-X----8--x5-8--5--x5--|| 
A||--6------8--3------7-X----6-----8--3------|| 
E||---------6----------------------6---------||















 
 
Foo Fighters - Erasereplace Tab :: indexed at Ultimate Guitar.
Erasereplace tabs @ 911Tabs

About the artist behind Erasereplace Tab:

Foo Fighters is an American alternative rock band formed by singer/guitarist Dave Grohl in 1995.[1] Grohl formed the group as a one-man project after the dissolution of his previous band Nirvana in 1994. Prior to the release of Foo Fighters in 1995, Grohl drafted Nate Mendel (bass), William Goldsmith (drums), and Pat Smear (guitar) to complete the group. Goldsmith and Smear left after the recording of the group's second album The Colour and the Shape (1997). They were replaced by Taylor Hawkins and Franz Stahl, respectively, although Stahl left prior to the recording of the group's third album, There Is Nothing Left to Lose (1999).

Chris Shiflett joined as the band's second guitarist after the completion of There is Nothing Left to Lose. The band released its fourth album One by One in 2002. The group followed that release with the two-disc In Your Honor (2005), which was split between acoustic songs and harder-rocking material. Foo Fighters released its sixth album Echoes, Silence, Patience & Grace in 2007. Over the course of the band's career, three of its albums have won Grammy Awards for Best Rock Album, and all six have been nominated for Grammys.

Indexed at Wikipedia.

Show us your talent, perform Erasereplace Tab!

Here you can post a video or audio performance. Tell me more ...
Where can we find your performance? Tell me more ...
Your comment:
Please, log in to post your performance.