Artists by letter: A B C D E F G H I J K L M N O P Q R S T U V W X Y Z 0-9

 
Tearing Us Apart Tab
Date: Thu, 11 Jan 2001 16:43:40 -0500
From: "Seth Risner" 
Subject: c/clapton_eric/tearing_us_apart.tab

        artist:Eric Clapton
        title: Tearing us apart
        album: August

  INTRO          riff 1
e|--------------|------------------------------------------|
B|--------------|*--7--5-----7-------------5b----5b-------*|
G|--------------|---7--5--7--7-------------5b----5b--------|
D|-------5~--7--|---------7---------5--7------7-------5--7-|
A|--/7~---------|*-----------------7-----------------7----*|
E|--------------|---------play-this-riff-4-times-----------|


riff 2
|--------------------------------------------------------|
|*-------------------------------------------------------|
|--12/14--14--1412--10--12/14----12/14--14--1412--10---|
|--------------------------------------------------------|
|*-------------------------------------------------------|
|--------------------------------------------------------|

|-------------------------------------------------------|
|------------------12brp10------10b------10b---play----*|
|--1214~--10------12brp10------10b------10b---this-----|
|-------------14~-----------12-------12--------riff-----|
|----------------------------------------------twice---*|
|-------------------------------------------------------|


play riff 1 8 times with verse


chorus
|--------------------|-------------------------------------|
|*-12brp10--12--10b-*|---12p10--12~---12p10--12----12--10b-|
|--12brp10--12--10b--|---12p10--12~---12p10--12----12--10b-|
|--------------------|--------------------------12---------|
|*------------------*|-------------------------------------|
|---play-3-times-----|-------------------------------------|


riff 2 twice again
riff 1 for second verse
chorus


now there's kind of a breakdown
|--------------------------------------|
|*------------------------------------*|
|-----------------5b-------------------|
|--7--5----5-7-7b-----7--5----5--7-7b--|
|*------5------------------7----------*|
|--------------------------------------|

|------------------------------5---|
|------------------------------5---|
|-----------------5b-----------5---|
|--7--5---5--7-7b-----7brp5--------|
|-------5--------------------7-----|
|----------------------------------|

riff 1 over slide solo
chorus
riff 2 w/ outro slide solo

     key
    ---------------------------------
    |  h - hammer on                |
    |  p - pull off                 |
    |  b - bend string up           |
    |  r - release bend             |
    |  / - slide up                 |
    |   - slide down               |
    |  ~ - vibrato                  |
    |  t - tap (with strumming hand)|
    |  x - muted, struck string     |
    ---------------------------------


      *tabbed by seth risner a.k.a. stratpicker1

 
 
Eric Clapton - Tearing Us Apart Tab :: indexed at Ultimate Guitar.
Tearing Us Apart tabs @ 911Tabs

About the artist behind Tearing Us Apart Tab:

Eric Patrick Clapton, CBE (born 30 March 1945), is a English blues-rock guitarist, singer, songwriter and composer. He is one of the most successful musicians of the 20th and 21st centuries,[1] garnering an unprecedented three inductions into the Rock and Roll Hall of Fame (The Yardbirds, Cream, and solo). Often viewed by critics and fans alike as one of the greatest guitarists of all time[2], Clapton was ranked fourth in Rolling Stone Magazine's list of the "100 Greatest Guitarists of All Time"[3] and #53 on their list of the Immortals: 100 Greatest Artists of All Time.[4]

Although Clapton's musical style has varied throughout his career, it has always remained rooted in the blues. Clapton is credited as an innovator in several phases of his career, which have included blues-rock (with John Mayall & the Bluesbreakers and The Yardbirds) and psychedelic rock (with Cream). Clapton has also achieved great chart success in genres ranging from Delta blues (Me and Mr. Johnson) to pop ("Change the World") and reggae (Bob Marley's "I Shot the Sheriff"). Clapton also achieved fame with Derek and the Dominos through the hit song "Layla".

Indexed at Wikipedia.

Show us your talent, perform Tearing Us Apart Tab!

Here you can post a video or audio performance. Tell me more ...
Where can we find your performance? Tell me more ...
Your comment:
Please, log in to post your performance.