Artists by letter: A B C D E F G H I J K L M N O P Q R S T U V W X Y Z 0-9

 
Mondo Bondage Tab
My first tab^^ please tell me if something is wrong. or if you have any corrections for
tab...maybe the word Verse didn't guess the same in german...well i think that's not so bad^^
Meine erste Tabulatur^^... wäre nett von euch wenn ihr  sagen könntet ob ich was falsch
habe, oder wie man die tabulatur verbessern könnte...vielleciht is auch da englische
für Strophe falsch aber naja^^
Intro
  4x
e------------------------------------------------------------------------------------------------|
h------------------------------------------------------------------------------------------------|
g---------------------------------------------------------------2-0---------------2-0------------|
D--2-2-2-2--2-2-----2-2-2-2--2-2-----2-2-2-2--2-2---2-2-------------------------------2-1-0------|
A--0-0-0-3--0-3-----0-0-0-3--0-3-----0-0-0-3--0-3---0-0-------------------------------------5-3--|
E------------------------------------------------------------------------------------------------|

     
                                                   Fsus2
           Mädchen deine schönen Augen machen mich   schwach
           Deine Haut so weiß wie Alabaster und zarter tausendfach

: Am                       Fsus2                    G
         wenn du mich einfach so ansiehst bin ich Butter in der Sonne
         doch die Reinheit deiner Seele ist die größte Wonne
         Unsre liebe ist so rein wie ein Silberbach

         Fsus2
         Bitte Baby sag nicht nein, baby mach mich jetzt nicht schwach

 
e-----------------------------------------------------------------------------|
h-----------------------------------------------------------------------------|
g------------------------------------------------------------------------2-0--|
D--2-2-2-2--2-2-----2-2-2-2--2-2-----2-2-2-2--2-2---2-2--------2-1-0----------|
A--0-0-0-3--0-3-----0-0-0-3--0-3-----0-0-0-3--0-3---0-0-----------------------|
E-----------------------------------------------------------------------------|
                                                                         Wie weit darf
gehen?
e--------------------------------------------------------------------------|
h--------------------------------------------------------------------------|
g---------------------------------------------------------------------4-2--|
d-4-4-4-4--4-4-----4-4-4-4--4-4-----4-4-4-4--4-4--4-4--------4-3-2---------|
a-2-2-2-5--2-5-----2-2-2-5--2-5-----2-2-2-5--2-5--2-2----------------------|
E--------------------------------------------------------------------------|
                                                                             Ich will
zusehen.
e-------------------------------------------------------------------------------------------------------------------------------|
h-------------------------------------------------------------------------------------------------------------------------------|
g----------------------------------------------------------------------7-5------------------------------------------------------|
d-7-7-7-7--7-7-----7-7-7-7--7-7-----7-7-7-7--7-7--7-7--------7-6-5------ a-5-5-5-8--5-8-----5-5-5-8--5-8-----5-5-5-8--5-8--5-5--|
E-------------------------------------------------------------------------------------------------------------------------------|

Intro


  

Mädchen du bist mir so nach ich will deine Tiefe spüren
Ich will mehr als jeder andre, komm lass mich dich verschnüren
Bitte sei mir meine Betty oder Gwendolyne
Die Stricke werden wirklich fest aber nicht schmerzhaft sein
Deine Wonne wird zur Frage, kannst du mir vertrauen
Meine Wonne wird es sein dir dabei zuzuschauen.

  

Intro

Mondo Bondage

 
 
Die Aerzte - Mondo Bondage Tab :: indexed at Ultimate Guitar.
Mondo Bondage tabs @ 911Tabs

Quick tip, so you can enjoy Mondo Bondage Tab even more:

If you spend just 10 seconds to register, you will be able to comment on all the chords and tabs and rate them. You will as well be able to comment on videos of your fellow guitarists and give them ratings from 1 to 5 ... And - of course - you can share your own videos with them and see what they think of you. :)
Click here to join us!

Show us your talent, perform Mondo Bondage Tab!

Here you can post a video or audio performance. Tell me more ...
Where can we find your performance? Tell me more ...
Your comment:
Please, log in to post your performance.