Artists by letter: A B C D E F G H I J K L M N O P Q R S T U V W X Y Z 0-9

 
Suffragette City Tab
-------------------------------------------------------------------------------
			     Suffragette City - David Bowie
-------------------------------------------------------------------------------
Tabbed by: Oisin
Email:[email protected]

Tuning: Standard

Awesome song.  Enjoy!  

e|------------------------------------------------------------------------------------------|
B|------------------------------------------------------------------------------------------|
G|------------------------------------------------------------------------------------------|
D|5/7----7----7----7----7-5/7-7-7-7-7-7-7-7---7-7-7-7-7-7-7---7-7-7-7-7-7-7---7-7-7-7-7-7-7-|
A|5/7----7----7----7----7-5/7-7-9-7-7-7-9-7---7-9-7-7-7-9-7---7-9-7-7-7-9-7---7-9-7-7-7-9-7-|
E|3/5----5----5----5----5-3/5-5-5-5-5-5-5-5---5-5-5-5-5-5-5---5-5-5-5-5-5-5---5-5-5-5-5-5-5-|

Verse:  
e|-------------------------------|
B|-------------------------------|
G|-------------------------------|
D|7-7-7-7-7-7-7-7-3-3-3-3-5-5-5-5|   x2
A|7-7-9-7-7-7-9-7-3-3-3-3-5-5-5-5|
E|5-5-5-5-5-5-5-5-1-1-1-1-3-3-3-3|
 "Hey man..."

e|---------------------------------------------------------------|
B|---------------------------------------------------------------|
G|--------------------------------7-7-7-7-7-7-7-7----------------|
D|7-7-7-7-7-7-7-7-9-9-9-9-9-9-9-9-7-7-9-7-7-7-9-7-3-3-3-3-5-5-5-5|
A|7-7-9-7-7-7-9-7-9-9-119-9-9-119-5-5-5-5-5-5-5-5-3-3-3-3-5-5-5-5|
E|5-5-5-5-5-5-5-5-7-7-7-7-7-7-7-7-----------------1-1-1-1-3-3-3-3|
                                                 "Spine out of place..."

Verse again

Chorus:  
e|---------------------------------------------------------------------|
B|---------------------------------------------------------------------|
G|----------------7-7-7-7-7-7-7-7-10101010-----------------------------|
D|7-7-7-7-7-7-7-7-7-7-7-7-7-7-7-7-10101010101010105-5-5-5-5-5-6-6-7----|  x2
A|7-7-7-7-7-7-7-7-5-5-5-5-5-5-5-5-8-8-8-8-101010105-5-5-5-5-5-6-6-7----|
E|5-5-5-5-5-5-5-5-------------------------8-8-8-8-3-3-3-3-3-3-4-4-5----|
 "Don't lean on me..."                          "City..."

Intro again

Verse again

Chorus again

Intro Redux:  

e|------------------------|
B|------------------------|
G|------------------------|
D|7----7----7----7----7-5/|
A|7----7----7----7----7-5/|
E|5----5----5----5----5-3/|

Solo (Verse in background)

Chorus again

Chorus again

Intro redeux again

Outro:  

e|-------------------------------|
B|-------------------------------|
G|-------------------------------|
D|7-7-7-7-7-7-7-7-3-3-3-3-5-5-5-5|   x8
A|7-7-9-7-7-7-9-7-3-3-3-3-5-5-5-5|
E|5-5-5-5-5-5-5-5-1-1-1-1-3-3-3-3|
                 "Suffragette city..." 

e|-------------------------------------------------|
B|-------------------------------------------------|
G|-------------------------------------------------|
D|2-2-2-2-2-2-2-2-2-2-2-2-2-2-2-2-2-2-2-2-2-2-2-2-7|
A|2-2-2-2-2-2-2-2-2-2-2-2-2-2-2-2-2-2-2-2-2-2-2-2-7|
E|0-0-0-0-0-0-0-0-0-0-0-0-0-0-0-0-0-0-0-0-0-0-0-0-5|

"Aaaaaaaaaah wham bam thank you ma'am!"

Outro again

And you're done!  Well played, good sir or madam.  


| /  slide up
|   slide down
===============================================================================

 
 
David Bowie - Suffragette City Tab :: indexed at Ultimate Guitar.
Suffragette City tabs @ 911Tabs

About the artist behind Suffragette City Tab:

"Ashes to Ashes" is a single by David Bowie, released in 1980. It made #1 in the UK and was the first cut from the Scary Monsters (and Super Creeps) album, also a #1 hit. As well as its musical qualities, it is noted for its innovative video, directed by Bowie and David Mallet. Bowie has said that with this song he was "wrapping up the seventies really for myself, and that seemed a good enough epitaph for it".[1]

Indexed at Wikipedia.

Show us your talent, perform Suffragette City Tab!

Here you can post a video or audio performance. Tell me more ...
Where can we find your performance? Tell me more ...
Your comment:
Please, log in to post your performance.