Artists by letter: A B C D E F G H I J K L M N O P Q R S T U V W X Y Z 0-9

Old Dirt Hill Bring That Beat Back Tab (ver 3) - Dave Matthews Band


 
Old Dirt Hill Bring That Beat Back Tab
Live At Radio City: Old Dirt Hill


Verse [1]

E:-------3--------3-3---3------3-------xx-xx-xx----|
B:-------3--------3-3---3------3-------33-33-33----|
G:-------0--------0-0---0------0-------xx-xx-xx----|
D:-------0--------2-2---0------0-------44-55-44----|
A:-------2--------3-3---2------2-------55-55-55----|
E:-----3-3------------3-3----3-3-------xx-xx-xx----|

"Scream and shout..." [2]

E:-----x--x---x-xxxxxx------3--------3-3---3----------|
B:-----4--4---4-444444------3--------3-3---3----------|
G:-----0--0---0-000000------0--------0-0---0----------|
D:-----5--5---5-555555------0--------2-2---0----------|
A:-----6--6---6-666666------2--------3-3---2----------|
E:-----x--x---x-xxxxxx------3------------3-3----------|

"But you know..." [3]

E:-----0---x---3-----------0---x---x------------------|
B:-----1---4---3---x---1---1---4---3------------------|
G:-----0---0---0---3---2---0---0---0------------------|
D:-----2---1---0---3---2---2---1---4------------------|
A:-----3---3---2---1---0---3---3---5------------------|
E:---------x---3---x-----------x---x------------------|

[1]
Ride my bike down the old
dirt hill,
[1]
First time without my
training wheels,
[1]
And the first time I kissed
you I lost my legs,
[1]
Bring that beat back to
me again.


[2]
Screaming, shout out loud,
oh innocence,
[2]
In the days when all we did
would never end.


[1]
Smoking under railroad
bridge,
[1]
And I used to ride my bike
down that old dirt hill,
[1]
And the first time I kissed
her I lost my legs,
[1]
Won't you bring that beat
back to me again.


[2]
Screaming, shout out loud,
oh innocence,
[2]
In the days when all we did
would never end.


[1]
Screaming down that old
dirt hill,
[1]
(Won't you) bring that
beat back to me again,
[1]
(Won't you) bring that
beat back to me again.


[3]
But you know,
When it gets hard,
Is when the days I
remember, baby,
Seem so far away,
I was just a kid,
But that's what I miss,
And it was just one kiss,
But that's what I miss,
Won't you take me back,
Take me back,
To that beat again.


[1]
Smoking under railroad
bridge,
[1]
Won't you bring that
beat back to me again.


[3]
But you know,
When it gets hard,
Is when the days I
remember, baby,
Seem so far away,
I was just a kid,
But that's what I miss,
I was just a kid,
But that's what I miss,
Come on take me back,
Take me back,
To that beat again.

This song has really complicated rythms in my opinion.just listen to the actual song and 
one from radio city and do some guess work............alrighty then.
This is my first tab so... if I need to make any changes let me know but, it works for 
good luck!

 
 
Dave Matthews Band - Old Dirt Hill Bring That Beat Back Tab :: indexed at Ultimate Guitar.
Old Dirt Hill Bring That Beat Back tabs @ 911Tabs

About the artist behind Old Dirt Hill Bring That Beat Back Tab:

Dave Matthews Band (also known by the acronym DMB) is a United States-based rock band, originally formed in Charlottesville, Virginia, in 1991 by singer-songwriter and guitarist Dave Matthews. Other band members include saxophonist LeRoi Moore, bassist Stefan Lessard, violinist Boyd Tinsley and drummer Carter Beauford. Since 1998, the band has performed most of their shows with keyboardist Butch Taylor who, while not officially named a member of the band, is a fixture on stage. For 2006 and 2007, the band added trumpet player Rashawn Ross — most noted as the live trumpet player for Soulive — to the stage. It is not yet known if his presence will be permanent. Moore, Beauford, Ross, Tinsley and Taylor also perform backing vocals.

According to RIAA, Dave Matthews Band has sold over 31 million units in the US alone, putting them in the Top 100 Highest Selling Music Acts of all time.[1]

Indexed at Wikipedia.

Show us your talent, perform Old Dirt Hill Bring That Beat Back Tab!

Here you can post a video or audio performance. Tell me more ...
Where can we find your performance? Tell me more ...
Your comment:
Please, log in to post your performance.