Artists by letter: A B C D E F G H I J K L M N O P Q R S T U V W X Y Z 0-9

 
When Youre Gone Tab
-------------------------------------------------------------------------------
		     Baby when you're gone - Bryan Adams & Mel C
-------------------------------------------------------------------------------
Tabbed by:Ed Briscombe
Email:[email protected]

Tuning:E A D G B E (Standard)

Intro:

    Dm   F       C          C   X   G   G   G   G   G   G   G
e|---5---1--------------------------3---3---3---3---3---3---3----------------|
B|---5---3--------------------------2---2---2---2---2---2---2----------------|
G|---7---3---5---5-h-7--7---5---x---0---0---0---0---0---0---0----------------|
D|---7---2---5---5------5---5---x---0---0---0---0---0---0---0----------------|
A|---6---1---5---5-h-6--6---5---x---0---0---0---0---0---0---0----------------|
E|---5---1--------------------------3---3---3---3---3---3---3----------------|
     V   V   V   V      V   ^   V   ^   ^   V   V   ^   V   ^

Verse 1:
    
     Dm Dm x  Dm x  G  G  G  G  G  G  G      
e|---5--5--x--5--x--3--3--3--3--3--3--3--------------------------------------|
B|---5--5--x--5--x--2--2--2--2--2--2--2--------------------------------------|
G|---7--7--x--7--x--0--0--0--0--0--0--0--------------------------------------|
D|---7--7--x--7--x--0--0--0--0--0--0--0--------------------------------------|
A|---6--6--x--6--x--0--0--0--0--0--0--0--------------------------------------|
E|---5--5--x--5--x--3--3--3--3--3--3--3--------------------------------------|
     V  V  V  ^  V  ^  ^  V  V  ^  V  ^ 

   C  C     C     C     C  C        C
e|-3--3--x--3--x-------------------------------------------------------------|
B|-3--3--x--3--x-------------------------------------------------------------|
G|-5--5--x--5--x--5--5-h-7-7--5--x--x----------------------------------------|
D|-5--5--x--5--x--5--5-----5--5--x--x----------------------------------------|
A|-5--5--x--5--x--5--5-h-6-6--5--x--x----------------------------------------|
E|-3--3--x--3--x-------------------------------------------------------------|X3
   V  V  V  ^  V  ^  V     V  ^  V  ^ 

On the second time the chord sequence is played play as shown below.
   C  C       C     C     C  C        C
e|---------------------------------------------------------------------------|
B|---------------------------------------------------------------------------|
G|-5--5-h-7-7-5--x--5--x--5--5-h-7-7--5--x--x--------------------------------|
D|-5--5-----5-5--x--5--x--5--5-----5--5--x--x--------------------------------|
A|-5--5-h-6-6-5--x--5--x--5--5-h-6-6--5--x--x--------------------------------|
E|---------------------------------------------------------------------------|
   V  V     V ^  V  ^  V  ^  V     V  ^  V  ^ 

     Dm Dm x  Dm x  Bb Bb Bb Bb Bb Bb Bb  G  G  G  G  G  G  G  G  G  G  G  G 
e|---5--5--x--5--x--1--1--1--1--1--1--1---3--3--3--3--3--3--3--3--3--3--3--3-|
B|---5--5--x--5--x--1--1--1--1--1--1--1---2--2--2--2--2--2--2--2--2--2--2--2-|
G|---7--7--x--7--x--3--3--3--3--3--3--3---0--0--0--0--0--0--0--0--0--0--0--0-|
D|---7--7--x--7--x--3--3--3--3--3--3--3---0--0--0--0--0--0--0--0--0--0--0--0-|
A|---6--6--x--6--x--3--3--3--3--3--3--3---0--0--0--0--0--0--0--0--0--0--0--0-|
E|---5--5--x--5--x--1--3--1--1--1--1--1---3--3--3--3--3--3--3--3--3--3--3--3-|
     V  V  V  ^  V  ^  ^  V  V  ^  V  ^   V  V  V  ^  V  ^  ^  V  v  ^  v  ^

Chorus:
     Dm Dm x  Dm x  F  F  F  F  F  F  F
e|---5--5--x--5--x--1--1--1--1--1--1--1--------------------------------------|
B|---5--5--x--5--x--3--3--3--3--3--3--3--------------------------------------|
G|---7--7--x--7--x--3--3--3--3--3--3--3--------------------------------------|
D|---7--7--x--7--x--2--2--2--2--2--2--2--------------------------------------|
A|---6--6--x--6--x--1--1--1--1--1--1--1--------------------------------------|
E|---5--5--x--5--x--1--1--1--1--1--1--1--------------------------------------|
     V  V  V  ^  V  ^  ^  V  V  ^  V  ^

   C  C       C  C  G   G   G   G   G   G   G  
e|------------------3---3---3---3---3---3---3--------------------------------|
B|------------------2---2---2---2---2---2---2--------------------------------|
G|-5--5-h-7-7-5--x--0---0---0---0---0---0---0--------------------------------|
D|-5--5-----5-5--x--0---0---0---0---0---0---0--------------------------------|
A|-5--5-h-6-6-5--x--0---0---0---0---0---0---0--------------------------------|
E|------------------3---3---3---3---3---3---3--------------------------------|X3
   V  V     V ^  V  ^   ^   V   V   ^   V   ^

     Dm Dm x  Dm x  Bb Bb Bb Bb Bb Bb Bb  G  G  G  G  G  G  G  G  G  G  G  G 
e|---5--5--x--5--x--1--1--1--1--1--1--1---3--3--3--3--3--3--3--3--3--3--3--3-|
B|---5--5--x--5--x--1--1--1--1--1--1--1---2--2--2--2--2--2--2--2--2--2--2--2-|
G|---7--7--x--7--x--3--3--3--3--3--3--3---0--0--0--0--0--0--0--0--0--0--0--0-|
D|---7--7--x--7--x--3--3--3--3--3--3--3---0--0--0--0--0--0--0--0--0--0--0--0-|
A|---6--6--x--6--x--3--3--3--3--3--3--3---0--0--0--0--0--0--0--0--0--0--0--0-|
E|---5--5--x--5--x--1--3--1--1--1--1--1---3--3--3--3--3--3--3--3--3--3--3--3-|
     V  V  V  ^  V  ^  ^  V  V  ^  V  ^   V  V  V  ^  V  ^  ^  V  v  ^  v  ^

Verse 2:

This riff comes in on the second of the three chord sequences over the C chord


e|---------------------------------------------------------------------------|
B|---------------------------------------------------------------------------|
G|--------5--5-x--5--------5--5----------------------------------------------|
D|--------5--5-x--5--------5--5----------------------------------------------|
A|--6--7-------------6--7----------------------------------------------------|
E|---------------------------------------------------------------------------|

Chorus:

Solo:
                          pick while bending back down and mute after each pick
e|--8----------------------5-------------------------------------------------|
B|-----8---------------------8-----------------------------------------------|
G|--------7(9)--7~--5--7(9)-----7(9)-(9)-(8)-(8)-7~--5--5-----5~-7--5--7~-7~-|
D|---------------------------------------------------------------------------|
A|---------------------------------------------------------------------------|
E|---------------------------------------------------------------------------|


e|--------------------------------------------------------------8--8--8--8--8|
B|-----------------------------------------------------------8--8--10-10-8--8|
G|-7~-5--7(9)-(9)-(9)7--5-----5~-----------5--5----5--5--/9------------------|
D|-------------------------7-----7--5------5--5h7--7--5----------------------|
A|------------------------------------6h7------------------------------------|
E|---------------------------------------------------------------------------|


e|-8--8--8--8--8--8---------------------------------8--10(12)10-8~-8----8h10-|
B|-10-10-8--8--10-8-------------8--8--8--8~-10-8-10------------------10------|
G|------------------/7--5~--/9~----------------------------------------------|
D|---------------------------------------------------------------------------|
A|---------------------------------------------------------------------------|
E|---------------------------------------------------------------------------|


e|-10-8--10-8--10-10-10-----------------8------------------------------------|
B|----------------------11~11~11p10--8-----8--/7--5~-------------------------|
G|---------------------------------------------------------------------------|
D|---------------------------------------------------------------------------|
A|---------------------------------------------------------------------------|
E|---------------------------------------------------------------------------|

Chorus:

Ending:


     Dm Dm x  Dm x  Bb Bb Bb Bb Bb Bb Bb F 
e|---5--5--x--5--x--1--1--1--1--1--1--1--1------------------------------------|
B|---5--5--x--5--x--1--1--1--1--1--1--1--3------------------------------------|
G|---7--7--x--7--x--3--3--3--3--3--3--3--3------------------------------------|
D|---7--7--x--7--x--3--3--3--3--3--3--3--2------------------------------------|
A|---6--6--x--6--x--3--3--3--3--3--3--3--1------------------------------------|
E|---5--5--x--5--x--1--3--1--1--1--1--1--1------------------------------------|
     V  V  V  ^  V  ^  ^  V  V  ^  V  ^  V

I've been wandering around the house all night
wondering what the hell to do
Yeah, I'm trying to concentrate but all I can think of is you
well the phone don't ring 'cause my friends ain't home
I'm tired of being all alone
Got the tv on 'cause the radio's playing
songs that remind me of you

Baby when you're gone, I realize I'm in love 
days go on and on, and the nights just seem so long
Even food don't taste that good, drink ain't doing what it should
things just feel so wrong, baby when you're gone

I keep driving up and down these streets
trying to find somewhere to go
Yeah i'm looking for a familiar face, but there's no one I know
oh, this is torture, this is pain, it feels like I'm gonna go insane
I hope you're coming back real soon, 'cause i don't know what to do

Baby when you're gone, I realize I'm in love
days go on and on, and the nights just seem so long
Even food don't taste that good, drink ain't doing what it should
things just feel so wrong, baby when you're gone

Baby when you're gone, I realize I'm in love
days go on and on and the nights just seem so long
Even food don't taste that good, drink ain't doing what it should
things just feel so wrong, baby when you're gone 


|( ) Bend up to
| /  slide up
|   slide down
| h  hammer-on
| p  pull-off
| ~  vibrato
| +  harmonic
| x  Mute note
===============================================================================


 
 
Bryan Adams - When Youre Gone Tab :: indexed at Ultimate Guitar.
When Youre Gone tabs @ 911Tabs

About the artist behind When Youre Gone Tab:

Bryan Adams OC, OBC,[1] (born Bryan Guy Adams on November 5, 1959)[2][3][4] is a Canadian rock singer-songwriter, musician and photographer. Some of his best-known albums are Reckless, 18 til I Die, and Waking Up the Neighbours. Adams has been nominated three times for Academy Awards for his songwriting in films.[5]

Indexed at Wikipedia.

Show us your talent, perform When Youre Gone Tab!

Here you can post a video or audio performance. Tell me more ...
Where can we find your performance? Tell me more ...
Your comment:
Please, log in to post your performance.