Artists by letter: A B C D E F G H I J K L M N O P Q R S T U V W X Y Z 0-9

 
Norwegian Wood Tab
tabbed by woodlandsclose

Beatles: Norwegian Wood

                    This is the solo version
E----------------------------------------------------------------|
B--0---2---0-----------------------------------------------------|
G-------------2---1--------2---1---------------2-----------------|
D----------------------4-----------2-------0---------------------|
A----------------------------------------------------4----2------|
E----------------------------------------------------------------|


E----------------------------------------------------------------|
B-----0--0--0--0-------------------------------------------------|
G--0--------------2--2--2--0--0--0--2--0--2----------------------|
D----------------------------------------------------------------|
A----------------------------------------------------------------|
E----------------------------------------------------------------|
   I once had a girl or should I say she once had me

E----------------------------------------------------------------|
B-----0--0--0--0-------------------------------------------------|
G--0--------------2--2--2--0--0--0--2--0--4-----9----------------|
D----------------------------------------------------------------|
A----------------------------------------------------------------|
E----------------------------------------------------------------|
  She asked me to stay and she told me to sit an-ywhere

D            D(C#bass)   G                                  
          G
		I once had a girl or should I say she once had me
		G                                    F          G
		She showed me her room isn't it good Norwegian wood

                          Gm                                              C
		She asked me to stay and she told me to sit an-ywhere
		   Gm                                            C
		So I looked around and I noticed there wasn't a chair

		G                             F             G
  		I sat on a rug biding my time drinking her wine
		G                                       F            G
		We talked until two and then she said it's time for bed

		     Gm                                                C
		She told me she worked in the morning and started to laugh
		 Gm                                                   C           D7
		I told her I didn't and crawled off to sleep in the bath

		G                             F              G
		And when I awoke I was alone this bird had flown
		   F                       F              G
		So I lit a fire isn't it good Norwegian wood

 
 
Beatles - Norwegian Wood Tab :: indexed at Ultimate Guitar.
Norwegian Wood tabs @ 911Tabs

About the artist behind Norwegian Wood Tab:

The Beatles were a pop and rock group from Liverpool, England formed in 1960. Primarily consisting of John Lennon (rhythm guitar, vocals), Paul McCartney (bass guitar, vocals), George Harrison (lead guitar, vocals), and Ringo Starr (drums, vocals) throughout their career, The Beatles are recognised for leading the mid-1960s musical "British Invasion" into the United States. Although their initial musical style was rooted in 1950s rock and roll and homegrown skiffle, the group explored genres ranging from Tin Pan Alley to psychedelic rock. Their clothes, styles, and statements made them trend-setters, while their growing social awareness saw their influence extend into the social and cultural revolutions of the 1960s. After the band broke up in 1970, all four members embarked on solo careers.

The Beatles are one of the most commercially successful and critically acclaimed bands in the history of popular music. The Beatles are the best-selling musical group in history. In the United Kingdom, The Beatles released more than 40 different singles, albums, and EPs that reached number one, earning more number one albums (15) than any other group in UK chart history. This commercial success was repeated in many other countries; their record company, EMI, estimated that by 1985 they had sold over one billion records worldwide.[1] According to the Recording Industry Association of America, The Beatles have sold more albums in the United States than any other band.[2] In 2004, Rolling Stone magazine ranked The Beatles number one on its list of 100 Greatest Rock & Roll Artists of All Time. According to that same magazine, The Beatles' innovative music and cultural impact helped define the 1960s, and their influence on pop culture is still evident today.

Indexed at Wikipedia.

Show us your talent, perform Norwegian Wood Tab!

Here you can post a video or audio performance. Tell me more ...
Where can we find your performance? Tell me more ...
Your comment:
Please, log in to post your performance.