Artists by letter: A B C D E F G H I J K L M N O P Q R S T U V W X Y Z 0-9

 
For You Blue Tab
------------------------------------------------------------
  THE BEATLES - FOR YOU BLUE (Harrison) From LET IT BE NAKED 
                album. Released 18th November 2003.
------------------------------------------------------------

  Tabbed by:PJVillanueva

Because you're sweet and lovely, girl, I love you
Because you're sweet and lovely, girl, it's true
I love you more than ever, girl, I do

I want you in the morning, girl, I love you
I want you at the moment I feel blue
I'm living every moment, girl, for you

(Walk, ...walk cat, walk)
(Go, Johnny, go)
(Same old twelve bar blues)
(Elmo James got nothin' on this, baby)

I've loved you from the moment, I saw you
You looked at me that's all you had to do
I feel it now, I hope you feel it too

Because you're sweet and lovely, girl, I love you
Because you're sweet and lovely, girl, it's true
I love you more than ever, girl, I do
Rhythm and blues.







Guitar 1: Use a capo on the fifth fret.


Guitar 2: If you want to play Lennon's lap steel guitar 
          part you may tune your guitar as follows:



                 e|0----- ------|
                 B|3------------| Up 1 1/2 steps
                 G|1------------| Up   1/2 step
                 D|2------------| Up 1 step
                 A|2------------| Up 1 step
                 E|0------------|


           
         e|0----|  First string will remain the same
         B|3----|  Second will sound as d when played open.
         G|1----|  Third will sound as G# when played open.
         D|2----|  Fourth will sound as e when played open.
         A|2----|  Fifth will sound as B when played open.
         E|0----|  Sixth string will also remain the same.


         Strumming open will produce an E7 chord.



    (Remember you must not use a capo with this second guitar
     and that you'll need a bottleneck or at least a glass to
     play it. Also If you put your guitar on your lap you will 
     reach high notes very easily.)


                                    
                              A5
e|------ ------ ------ ------|------ ------ ------ ------| 
B|---------------------------|---------------------------|
G|---------------------------|---------------------------|
D|---------------2P0---------|2---2--2---2--2---2--------|
A|---------------------0---2-|0---0--0---0--0---0--------|
E|--------------0---3--------|---------------------0---1-|




  D7                          B7
e|------ 2---2- 2---2- ------|------ ------ ------ ------|
B|-------1---1--1---1--------|----0--0---0--0---0--0---0-|
G|-------2---2--2---2--------|----2--2---2--2---2--2---2-|
D|----0----------------------|----1--1---1--1---1--1---1-|
A|---------------------0---1-|2---2--2---2--2---2--2---2-|
E|2--------------------------|---------------------------|




  E7
e|----0- ------ ----0- ------|----0- ------ ----0- ------|
B|-----------3-------------3-|-----------3-------------3-|
G|0H1------------------------|0H1------------------------|
D|2--------------------------|2--------------------------|
A|---------------------------|---------------------------|
E|0------0------0------0-----|0------0------0------0-----|
                                                       Be..
e|------ ------ ------ ------|------ ------ ------ ------|
d|---------------------------|-------------------------/-|
G#---------------------------|-------------------------/-|
e|---------------------------|-------------------------/-|
B|---------------------------|---------------------------|
E|---------------------------|---------------------------|




  A                           D
e|----0- ----0- ----0- ----0-|----2- ----2- ----2- ----2-| 
B|----2------2------2------2-|----3------3------3------3-|
G|----2------2------2------2-|----2------2------2------2-|
D|----2------2------2------2-|----0------0------0------0-|
A|----0------0------0------0-|---------------------------|
E|---------------------------|---------------------------|
 cause you're sweet  and   lovely, girl,               I
e|------ ------ ------ ------|------ ------ ------ ------| 
d|10--10-----10-----10-----/-|3---3------3------3------/-|
G#10--10-----10-----10-----/-|3---3------3------3------/-|
e|10--10-----10-----10-----/-|3---3------3------3------/-|
B|---------------------------|---------------------------|
E|---------------------------|---------------------------|

e|------ 13H14- ------ 14----|------ 15---- ------ 15----|
B|-------15------------15----|-------15------------15----|
G|---------------------------|---------------------------|
D|---------------------------|---------------------------|
A|---------------------------|---------------------------|
E|---------------------------|---------------------------|




  A
e|----5- ----5- ----5- ----5-|------ 5----- 5----- 5-----|
B|----2------2------2------2-|-------2------2------2-----|
G|----2------2------2------2-|-------2------2------2-----|
D|----2------2------2------2-|-------2------2------2-----|
A|----0------0------0------0-|-------0------0------0-----|
E|---------------------------|---------------------------|
  love you                                              Be..
e|------ ------ ------ ------|------ ------ ------ ------|
d|10--10-----10-----10-----/-|10--10-----10-----10-----/-|
G#10--10-----10-----10-----/-|10--10-----10-----10-----/-|
e|10--10-----10-----10-----/-|10--10-----10-----10-----/-|
B|---------------------------|---------------------------|
E|---------------------------|---------------------------|

e|------ 13H14- ------ 13H14-|------ 13H14- ------ 13H14-|
B|-------15------------15----|-------15------------15----|
G|---------------------------|---------------------------|
D|---------------------------|---------------------------|
A|---------------------------|---------------------------|
E|---------------------------|---------------------------|




  D
e|------ ------ ------ ------|------ ------ ------ ------|
B|---------------------------|---------------------------|
G|---------------------------|---------------------------|
D|---------------------------|---------------------------|
A|---------------------------|---------------------------|
E|---------------------------|---------------------------|
 cause you're sweet  and   lovely girl          it's   true,
e|------ ------ ------ ------|------ ------ ------ ------|
d|3---3------3------3------/-|3---3------3------3------/-|
G#3---3------3------3------/-|3---3------3------3------/-|
e|3---3------3------3------/-|3---3------3------3------/-|
B|---------------------------|---------------------------|
E|---------------------------|---------------------------|

e|------ 15---- ------ 13----|------ 15---- ------ 15--13|
B|-------15------------15----|-------15------------15----|
G|---------------------------|---------------------------|
D|---------------------------|---------------------------|
A|---------------------------|---------------------------|
E|---------------------------|---------------------------|




  A                Asus4/6 A    
e|----5- ------ 5----- 5---5-|------ 5----- 5----- 5-----|
B|----2---------2-H-3--3---2-|-------2------2------2-----|
G|----2---------2------2---2-|-------2------2------2-----|
D|----2---------2-H-4--4---2-|-------2------2------2-----|
A|----0---------0------0---0-|-------0------0------0-----|
E|---------------------------|---------------------------|
                                                        I 
e|------ ------ ------ ------|------ ------ ------ ------|
d|10--10-----10-----10-----/-|10--10-----10-----10-----/-|
G#10--10-----10-----10-----/-|10--10-----10-----10-----/-|
e|10--10-----10-----10-----/-|10--10-----10-----10-----/-|
B|---------------------------|---------------------------|
E|---------------------------|---------------------------|

e|------ 13H14- ------ 13H14-|------ 15--13 15--15 13--15|
B|-------15------------15----|-------15------------------|
G|---------------------------|---------------------------|
D|---------------------------|---------------------------|
A|---------------------------|---------------------------|
E|---------------------------|---------------------------|




  E7
e|0---0- ----0- ----0- ----0-|------ ------ ------ ------|
B|3---3------3------3------3-|---------------------------|
G|1---1------1------1------1-|---------------------------|
D|2---2------2------2------2-|---------------------------|
A|2---2------2------2------2-|---------------------------|
E|0---0------0------0------0-|---------------------------|     
  love you   more   than   ever,  girl,         I      do.
e|------ ------ ------ ------|------ ------ ------ ------|
d|5---5------5------5------/-|3---3------3------3------0-|
G#5---5------5------5------/-|3---3------3------3------4-|
e|5---5------5------5------/-|3---3------3------3------2-|
B|---------------------------|---------------------------|
E|---------------------------|---------------------------|

e|------ 17---- ------ 17----|------ 15---- ------ 15----|
B|-------17------------17----|-------15------------15----|
G|---------------------------|---------------------------|
D|---------------------------|---------------------------|
A|---------------------------|---------------------------|
E|---------------------------|---------------------------|




                                  E7
e|----5- --5--- --5--- --5---|5---0- ----0- ----0- 0-----|
B|---------------------------|----3------3------3--3-----|
G|----2--0---0---------------|----1------1------1--1-----|
D|--------------4---4--3---3-|2---2------2------2--2-----|
A|---------------------------|----2------2------2--2-----|
E|---------------------------|----0------0------0--0-----|     
                                                       I
e|------ ------ ------ ------|------ ------ ------ ------|
d|---------------------------|----/--5---5------5--------|
G#---------------------------|----/--5---5------5--------|
e|---------------------------|----/--5---5------5--------|
B|---------------------------|---------------------------|
E|---------------------------|---------------------------|

e|------ 13H14- ------ 13H14-|------ ----17 ------ 17----|
B|-------15------------15----|-----------17--------17----|
G|---------------------------|---------------------------|
D|---------------------------|---------------------------|
A|---------------------------|---------------------------|
E|---------------------------|---------------------------|




  A                           D
e|----0- ----0- ----0- ----0-|------ ------ ------ ------|   
B|----2------2------2------2-|---------------------------|
G|----2------2------2------2-|---------------------------|
D|----2------2------2------2-|---------------------------|
A|----0------0------0------0-|---------------------------|
E|---------------------------|---------------------------|
  want you   in     the  morning  girl                 I 
e|------ ------ ------ ------|------ ------ ------ ------|
d|10---------10-----10-----/-|3---3------3------3--3--/-|
G#10---------10-----10-----/-|3---3------3------3--3--/-|
e|10---------10-----10-----/-|3---3------3------3--3--/-|
B|---------------------------|---------------------------|
E|---------------------------|---------------------------|

e|------ 13H14- ------ 14----|------ 15---- ------ 15----|
B|-------15------------15----|-------15------------15----|
G|---------------------------|---------------------------|
D|---------------------------|---------------------------|
A|---------------------------|---------------------------|
E|---------------------------|---------------------------|



 

  A                                      A7
e|----5- ----5- 5---5- ----5-|------ 5---3- ------ 3-----|
B|----2------2--2---2------2-|-------2---2---------2-----|
G|----2------2--2---2------2-|-------2---2---------2-----|
D|----2------2--2---2------2-|-------2---2---------2-----|
A|----0------0--0---0------0-|-------0---0---------0-----|
E|---------------------------|---------------------------|    
  love you,                                            I 
e|------ ------ ------ ------|------ ------ ------ ------|
d|10--10-----10-----10-----/-|10--10-----10-----10-----/-|
G#10--10-----10-----10-----/-|10--10-----10-----10-----/-|
e|10--10-----10-----10-----/-|10--10-----10-----10-----/-|
B|---------------------------|---------------------------|
E|---------------------------|---------------------------|

e|------ 13H14- ------ 13H14-|------ 1314-- 14---- 14----|
B|-------15------------15----|-------1515---15-----15----|
G|---------------------------|---------------------------|
D|---------------------------|---------------------------|
A|---------------------------|---------------------------|
E|---------------------------|---------------------------|





  D
e|2----- ----2- ------ ------|2----- ----2- ----2- ------|
B|3----------3---------------|3----------3------3--------|
G|2----------2---------------|2----------2------2--------|
D|0----------0---------------|0----------0------0--------|
A|---------------------------|---------------------------|
E|---------------------------|---------------------------|
  want you  at     the    moment    I          feel   blue,
e|------ ------ ------ ------|------ ------ ------ ------|
d|3---3------3------3------/-|3---3------3------3------/-|
G#3---3------3------3------/-|3---3------3------3------/-|
e|3---3------3------3------/-|3---3------3------3------/-|
B|---------------------------|---------------------------|
E|---------------------------|---------------------------|

e|------ 15---- ------ 15----|------ 15---- ------ 15----|
B|-------15------------15----|-------15------------15----|
G|---------------------------|---------------------------|
D|---------------------------|---------------------------|
A|---------------------------|---------------------------|
E|---------------------------|---------------------------|




  A
e|----5- ------ 5---5- ------|------ 5----- 5----- 5-----|
B|----2---------2---2--------|-------2------2------2-----|
G|----2---------2---2--------|-------2------2------2-----|
D|----2---------2---2--------|-------2------2------2-----|
A|----0---------0---0--------|-------0------0------0-----|
E|---------------------------|---------------------------|
                                                       I'm 
e|------ ------ ------ ------|------ ------ ------ ------|
d|10--10-----10-----10-----/-|10--10-----10-----10-----/-|
G#10--10-----10-----10-----/-|10--10-----10-----10-----/-|
e|10--10-----10-----10-----/-|10--10-----10-----10-----/-|
B|---------------------------|---------------------------|
E|---------------------------|---------------------------|

e|------ 13H14- ------ 14----|------ 13H14- ------ 14----|
B|-------15------------15----|-------15------------15----|
G|---------------------------|---------------------------|
D|---------------------------|---------------------------|
A|---------------------------|---------------------------|
E|---------------------------|---------------------------|





  E7                          D
e|0---0- ----0- 0---0- 0-----|2----- ------ ------ ------|
B|3---3------3--3---3--3-----|3--------------------------|
G|1---1------1--1---1--1-----|2--------------------------|
D|2---2------2--2---2--2-----|0--------------------------|
A|2---2------2--2---2--2-----|---------------------------|
E|0---0------0--0---0--0-----|---------------------------|
  living     ev'ry         moment girl          for    you.
e|------ ------ ------ ------|------ ------ ------ ------|
d|5---5------5------5------/-|3---3------3------3------0-|
G#5---5------5------5------/-|3---3------3------3------4-|
e|5---5------5------5------/-|3---3------3------3------2-|
B|---------------------------|---------------------------|
E|---------------------------|---------------------------|

e|------ 17---- ------ 15----|------ 15---- ------ 15--13|
B|-------17------------15----|-------15------------15----|
G|---------------------------|---------------------------|
D|---------------------------|---------------------------|
A|---------------------------|---------------------------|
E|---------------------------|---------------------------|




                                  E7
e|----5- --5--- --5--- --5---|5---0- 0---0- ----0- 0-----|
B|---------------------------|----3--3---3------3--3-----|
G|----2--0---0---------------|----1--1---1------1--1-----|
D|--------------4---4--3---3-|2---2--2---2------2--2-----|
A|---------------------------|----2--2---2------2--2-----|
E|---------------------------|----0--0---0------0--0-----| 

e|------ ------ ------ ------|------ ------ ------ ------|
d|---------------------------|----/--5---5------5--------|
G#---------------------------|----/--5---5------5------/-|
e|---------------------------|----/--5---5------5--------|
B|---------------------------|---------------------------|
E|---------------------------|---------------------------|    





  A5                          D7
e|------ ------ ------ ------|2----- 2---2- ----2- 2-----|   
B|---------------------------|1------1---1------1--1-----|
G|----2--2------2------------|2------2---2------2--2-----|
D|----2--2------2------------|0------0---0------0--0-----|
A|----0--0------0------------|---------------------------|
E|---------------------------|---------------------------|

e|----10 ------ ------ ------|----3- ------ ------ ------|
d|-----------10--------------|-----------3---------------|
G#10----------------10-----/-|3-----------------3------/-|
e|---------------------------|-------------------------/-|
B|---------------------------|---------------------------|
E|---------------------------|---------------------------|

e|------ 13H14- ------ 13H14-|------ 15---- ------ 15--13|
B|-------15------------15----|-------15------------15----|
G|---------------------------|---------------------------|
D|---------------------------|---------------------------|
A|---------------------------|---------------------------|
E|---------------------------|---------------------------|





  A              Asus4/6   A             A7
e|----5- ------ 5---5- ----5-|----5- ----3- ----3- 3-----|
B|----2---------2H3-3------2-|----2------2------2--2-----|
G|----2---------2---2------2-|----2------2------2--2-----|
D|----2---------2H4-4------2-|----2------2------2--2-----|
A|----0---------0---0------0-|----0------0------0--0-----|
E|---------------------------|---------------------------|    
                              (Walk,
e|----10 ------ ------ ------|----10 ------ ------ ------|
d|----------10---------------|-----------10--------------|
G#10----------------10----/-|10----------------10-----/-|
e|10-------------------------|-------------------------/-|
B|---------------------------|---------------------------|
E|---------------------------|---------------------------| 

e|------ 13H14- ------ 14----|------ 13H14- ----15 13--15|
B|-------15------------15----|------------------15-------|
G|---------------------------|---------------------------|
D|---------------------------|---------------------------|
A|---------------------------|---------------------------|
E|---------------------------|---------------------------|





  D                                                    A
e|----2- 2----- 2----- 2-----|----2- 2----- 2---2- 2---5-|
B|----3--3------3------3-----|----3--3------3---3--3---2-|
G|----2--2------2------2-----|----2--2------2---2--2---2-|
D|----0--0------0------0-----|----0--0------0---0--0---2-|
A|---------------------------|-------------------------0-|
E|---------------------------|---------------------------|
                              walk   cat,   walk)
e|----3- ------ ------ ------|----3- ------ ------ ------|
d|-----------3---------------|-----------3---------------|
G#3-----------------3--------|------------------3--------|
e|3------------------------/-|3------------------------/-|
B|---------------------------|---------------------------|
E|---------------------------|---------------------------|

e|------ 15---- ------ 15----|----15 13--15 ------ 15----|
B|-------15------------15----|----15---------------15----|
G|---------------------------|---------------------------|
D|---------------------------|---------------------------|
A|---------------------------|---------------------------|
E|---------------------------|---------------------------|





                                                       E7
e|----5- ------ 5---5- ----5-|------ ----5- ------ 5---0-|
B|----2---------2---2------2-|-----------2---------2---3-|
G|----2---------2---2------2-|-----------2---------2---1-|
D|----2---------2---2------2-|-----------2---------2---2-|
A|----0---------0---0------0-|-----------0---------0---2-|
E|---------------------------|-------------------------0-|
               (Go,        Johnny,       go)
e|----10 ------ --108 ------|------ ------ ------ ------|
d|---------------------------|---------------------------|
G#-----------10-----------10-|----10-----10-----10-----/-|
e|10-------------------------|-------------------------/-|
B|---------------------------|---------------------------|
E|---------------------------|---------------------------|

e|------ 13H14- ------ 13H14-|------ 13H14- ------ 13H14-|
B|-------15------------15----|-------15------------15----|
G|---------------------------|---------------------------|
D|---------------------------|---------------------------|
A|---------------------------|---------------------------|
E|---------------------------|---------------------------|





                              D
e|----0- ----0- ------ 0-----|------ 2---22 2---2- 2-----|
B|----3------3---------3-----|-------3---33-3---3--3-----|
G|----1------1---------1-----|-------2---22-2---2--2-----|
D|----2------2---------2-----|-------0---00-0---0--0-----|
A|----2------2---------2-----|---------------------------|
E|----0------0---------0-----|---------------------------|

e|----5- ------ ------ ------|----3- ------ ------ ------|
d|-----------5---------------|-----------3---------------|
G#5-----------------5------/-|3-----------------3-/-4----|
e|5------------------------/-|3------------------------2-|
B|---------------------------|---------------------------|
E|---------------------------|---------------------------|

e|------ 17---- ------ 17----|------ 15--13 15--15 13--15|
B|-------17------------17----|-------15------------------|
G|---------------------------|---------------------------|
D|---------------------------|---------------------------|
A|---------------------------|---------------------------|
E|---------------------------|---------------------------|





                                     E7
e|----5- --5--- --5--- --5---|5----- 0---0- 0---0- 0-----|
B|---------------------------|-------3---3--3---3--3-----|
G|----2--0---0---------------|-------1---1--1---1--1-----|
D|--------------4---4--3---3-|2------2---2--2---2--2-----|
A|---------------------------|-------2---2--2---2--2-----|
E|---------------------------|-------0---0--0---0--0-----| 
     (Same old  twelve bar blues)
e|------ ------ ------ ------|------ ------ ------ ------|
d|---------------------------|----/--5---5------5--------|
G#---------------------------|----/--5---5------5--------|
e|---------------------------|----/--5---5------5--------|
B|---------------------------|---------------------------|
E|---------------------------|---------------------------|

e|------ 13H14- ------ 14----|------ 17--17 ------ 17----|
B|-------15------------15----|-------17--17--------17----|
G|---------------------------|---------------------------|
D|---------------------------|---------------------------|
A|---------------------------|---------------------------|
E|---------------------------|---------------------------|





  A                           D
e|0----- 0---0- 0---0- 0-----|---2-- 2---2- 2----- 2-----|  
B|2------2---2--2---2--2-----|---3---3---3--3------3-----|  
G|2------2---2--2---2--2-----|---2---2---2--2------2-----|
D|2------2---2--2---2--2-----|---0---0---0--0------0-----|
A|0------0---0--0---0--0-----|---------------------------|
E|---------------------------|---------------------------|

e|------ ------ ------ ------|------ ------ ------ ------|
d|10--10-----10-----10-----/-|15--15-----15-----15-----/-|
G#10--10-----10-----10-----/-|15--15-----15-----15-----/-|
e|10--10-----10-----10-----/-|15--15-----15-----15-----/-|
B|---------------------------|---------------------------|
E|---------------------------|---------------------------|

e|10---- 8----- 7---5- ------|------ ------ ------ ------|
B|---------------------------|8------6------5---3--------|
G|11-----9------7---5--------|---------------------------|
D|---------------------------|9------7------5---3--------|
A|---------------------------|---------------------------|
E|---------------------------|---------------------------|





  A                                      A7
e|----5- ------ 5---5- ----5-|------ 5---3- ------ 3-----|
B|----2---------2---2------2-|-------2---2---------2-----|
G|----2---------2---2------2-|-------2---2---------2-----|
D|----2---------2---4------2-|-------2---2---------2-----|
A|----0---------0---0------0-|-------0---0---------0-----|
E|---------------------------|---------------------------|

e|------ ------ ------ ------|------ ------ ------ ------|
d|10--10-----10-----10-----/-|10--10-----10-----10----/-|
G#10--10-----10-----10-----/-|10--10-----10-----10----/-|
e|10--10-----10-----10-----/-|10--10-----10-----10----/-|
B|---------------------------|---------------------------|
E|---------------------------|---------------------------|
 
e|------ ------ ------ ------|------ ------ ------ ------|
B|3------1------0------------|---------------------------|
G|------------------2--------|---------------------------|
D|4------2------0----------5-|-------3------2---0--------|
A|------------------3--------|---------------------------|
E|-------------------------7-|-------5------3---1--------|





  D
e|----2- 2----- 2----- 2-----|----2- 2---2- 2----- 2-----|
B|----3--3------3------3-----|----3--3---3--3------3-----|
G|----2--2------2------2-----|----2--2---2--2------2-----|
D|----0--0------0------0-----|----0--0---0--0------0-----|
A|---------------------------|---------------------------|   
E|---------------------------|---------------------------|

e|------ ------ ------ ------|------ ------ ------ ------|
d|3---3------3------3------/-|3---3------3------3--3---/-|
G#3---3------3------3------/-|3---3------3------3--3---/-|
e|3---3------3------3------/-|3---3------3------3--3---/-|
B|---------------------------|---------------------------|
E|---------------------------|---------------------------|

e|------ ------ ------ ------|------ ------ ------ ------|
B|---------------------------|---------------------------|
G|0----------2---------0-----|----2---------3---3--------|
D|0----------0---------0-----|----0---------0---0--------|
A|---------------------------|---------------------------|
E|3------3------3------3-----|3------3------3------3-----|





  A
e|----5- ------ 5----- ----5-|------ 5---5- ------ 5-----|
B|----2---------2----------2-|-------2---2---------2-----|
G|----2---------2----------2-|-------2---2---------2-----|
D|----2---------2----------2-|-------2---2---------2-----|
A|----0---------0----------0-|-------0---0---------0-----|
E|---------------------------|---------------------------|

e|10--10 ----10 ----10 ---/-|10--10 ----10 ----10 ------|
d|10--10-----10-----10----/-|10--10-----10-----10-------|
G#10--10-----10-----10----/-|10--10-----10-----10-------|
e|10--10-----10-----10----/-|10--10-----10-----10-------|
B|---------------------------|---------------------------|
E|---------------------------|---------------------------| 
      (Elmo James got nothin'on this, baby)
e|------ ------ ------ ------|------ ------ ------ ------|
B|---------------------------|---------------------------|
G|---------------------------|---------------------------|
D|4---4--5------4---4------4-|5---3--5---5--3------5---3-|
A|5---5--5------5---5------5-|5---5--5---5--5------5---5-|
E|---------------------------|---------------------------|



      

  E7                          D7
e|0---0- ----0- ----0- 0-----|------ ------ ------ ------|
B|3---3------3------3--3-----|-------1---1--1------1-----|
G|1---1------1------1--1-----|-------2---2--2------2-----|
D|2---2------2------2--2-----|-------0---0--0------0-----|
A|2---2------2------2--2-----|---------------------------|
E|0---0------0------0--0-----|---------------------------|

e|----5- ----5- ----5- ----/-|3---3- ----3- ----3- ------|
d|----5------5------5------/-|3---3------3------3------0-|
G#----5------5------5------/-|3---3------3------3------4-|
e|----5------5------5------/-|3---3------3------3------2-|
B|---------------------------|---------------------------|
E|---------------------------|---------------------------|

e|------ ------ ------ ------|------ ------ ------ ------|
B|-------10--8------6--8-----|10--8------6--8---6--5-----|
G|---------------------------|---------------------------|
D|-------11--9------7--9-----|11--9------7--9---7--5-----|
A|---------------------------|---------------------------|
E|---------------------------|---------------------------|





                                     E7
e|----5- --5--- --5--- --5---|5----- 0---0- ----0- ------|
B|---------------------------|-------3---3------3--------|
G|----2--0---0---------------|-------1---1------1--------|
D|--------------4---4--3---3-|2------2---2------2--------|
A|---------------------------|-------2---2------2--------|
E|---------------------------|-------0---0------0--------|       
                                                      I've
e|------ ------ ------ ------|------ ----5- ----5- ------|
d|---------------------------|-----------5------5------/-|
G#---------------------------|-----------5------5------/-|
e|---------------------------|----/--5-----------------/-|
B|---------------------------|---------------------------|
E|---------------------------|---------------------------|

e|------ ------ ------ ------|------ ------ ------ ------|
B|3------1------3-3----3-----|---------------------------|
G|2------2------4-4----3-----|----2------2------2--------|
D|0------0------0------0-----|----2------2------2--------|
A|---------------------------|---------------------------|
E|---------------------------|---------------------------|   





  A                           D
e|------ 5----- ------ 5-----|------ 5----- ------ 5-----|
B|-------2-------------2-----|-------3-------------3-----|
G|-------2-------------2-----|-------2-------------2-----|
D|-------2-------------2-----|-------0-------------0-----|
A|-------0-------------0-----|---------------------------|
E|---------------------------|---------------------------|
  loved you  from   the    moment                      I 
e|------ ------ ------ ------|------ ------ ------ ------|
d|10--10-----10-----10-----/-|3---3------3------3------/-|
G#10--10-----10-----10-----/-|3---3------3------3------/-|
e|10--10-----10-----10-----/-|3---3------3------3------/-|
B|---------------------------|---------------------------|
E|---------------------------|---------------------------|

e|------ 13H14- ------ 13H14-|------ 15---- ------ 15----|
B|-------15------------15----|-------15------------15----|
G|---------------------------|---------------------------|
D|---------------------------|---------------------------|
A|---------------------------|---------------------------|
E|---------------------------|---------------------------|





  A
e|----5- ------ 5---5- ----5-|----5- ----3- ------ ------|
B|----2---------2---2------2-|----2------2---------------|
G|----2---------2---2------2-|----2------2---------------|
D|----2---------2---2------2-|----2------2---------------|
A|----0---------0---0------0-|----0------0---------------|
E|---------------------------|---------------------------|
  saw you                                              You
e|------ ------ ------ ------|------ ------ ------ ------|
d|10--10-----10-----10-----/-|10--10-----10-----10-----/-|
G#10--10-----10-----10-----/-|10--10-----10-----10-----/-|
e|10--10-----10-----10-----/-|10--10-----10-----10-----/-|
B|---------------------------|---------------------------|
E|---------------------------|---------------------------|

e|------ 13H14- ------ 15--13|15---- 15--13 15--15 13--15|
B|-------15------------15----|-------15------------------|
G|---------------------------|---------------------------|
D|---------------------------|---------------------------|
A|---------------------------|---------------------------|
E|---------------------------|---------------------------|





  D
e|----5- ----5- ----5- ----5-|----5- ----5- ----5- ----5-|
B|----3------3------3------3-|----3------3------3------3-|
G|----2------2------2------2-|----2------2------2------2-|
D|----0------0------0------0-|----0------0------0------0-|
A|---------------------------|---------------------------|
E|---------------------------|---------------------------|
  looked at  me     that's all    you    had    to     do,
e|------ ------ ------ ------|------ ------ ------ ------|
d|3---3------3------3-----/-|3---3------3------3--3---/-|
G#3---3------3------3-----/-|3---3------3------3--3---/-|
e|3---3------3------3-----/-|3---3------3------3--3---/-|
B|---------------------------|---------------------------|
E|---------------------------|---------------------------|

e|------ 13---- ------ 13----|------ 13---- ------ 13H1513
B|-------15------------15----|-------15------------15----|
G|---------------------------|---------------------------|
D|---------------------------|---------------------------|
A|---------------------------|---------------------------|
E|---------------------------|---------------------------|





  A                Asus4/6 A    
e|----5- ------ 5----- 5---5-|------ 5----- 5----- 5-----|
B|----2---------2-H-3--3---2-|-------2------2------2-----|
G|----2---------2------2---2-|-------2------2------2-----|
D|----2---------2-H-4--4---2-|-------2------2------2-----|
A|----0---------0------0---0-|-------0------0------0-----|
E|---------------------------|---------------------------|
                                                        I 
e|------ ------ ------ ------|------ ------ ------ ------|
d|10--10-----10-----10-----/-|10--10-----10-----10-----/-|
G#10--10-----10-----10-----/-|10--10-----10-----10-----/-|
e|10--10-----10-----10-----/-|10--10-----10-----10-----/-|
B|---------------------------|---------------------------|
E|---------------------------|---------------------------|

e|------ 13---- ------ 13----|------ 13---- ------ 13----|
B|-------15------------15----|-------15------------15----|
G|---------------------------|---------------------------|
D|---------------------------|---------------------------|
A|---------------------------|---------------------------|
E|---------------------------|---------------------------|





  E7
e|0---0- ----0- ----0- ----0-|2----- ------ ------ ------|
B|3---3------3------3------3-|3--------------------------|
G|1---1------1------1------1-|2--------------------------|
D|2---2------2------2------2-|0--------------------------|
A|2---2------2------2------2-|---------------------------|
E|0---0------0------0------0-|---------------------------|     
  feel it    now    I      hope  you   feel    it     too.
e|------ ------ ------ ------|------ ------ ------ ------|
d|5---5------5------5------/-|3---3------3------3--3---0-|
G#5---5------5------5------/-|3---3------3------3--3---4-|
e|5---5------5------5------/-|3---3------3------3--3---2-|
B|---------------------------|---------------------------|
E|---------------------------|---------------------------|

e|------ 17---- ------ 17----|------ 15--13 15--15 13--15|
B|-------17------------17----|-------15-----15-----15----|
G|---------------------------|---------------------------|
D|---------------------------|---------------------------|
A|---------------------------|---------------------------|
E|---------------------------|---------------------------|





                                  E7
e|----5- --5--- --5--- --5---|5---0- 0---0- 0---0- 0-----|
B|---------------------------|----3--3---3--3---3--3-----|
G|----2--0---0---------------|----1--1---1--1---1--1-----|
D|--------------4---4--3---3-|2---2--2---2--2---2--2-----|
A|---------------------------|----2--2---2--2---2--2-----|
E|---------------------------|----0--0---0--0---0--0-----|     
                                                       Be.. 
e|------ ------ ------ ------|------ 5---5- ----5- --/---|
d|---------------------------|----/--5---5------5----/---|
G#---------------------------|----/--5---5------5----/---|
e|---------------------------|----/--5-------------------|
B|---------------------------|---------------------------|
E|---------------------------|---------------------------|

e|------ 13---- ------ 13----|------ ------ --2020-202020|
B|-------15------------15----|----------------2020-202020|
G|---------------------------|---------------------------|
D|---------------------------|---------------------------|
A|---------------------------|---------------------------|
E|---------------------------|---------------------------|




 
  A                           D
e|----0- ----0- ----0- ----0-|----2- ----2- ----2- ------|
B|----2------2------2------2-|----3------3------3--------|
G|----2------2------2------2-|----2--2---2------2--------|
D|----2------2------2------2-|----0--0---0------0--------|
A|----0------0------0------0-|---------------------------|
E|---------------------------|---------------------------|
 cause you're sweet  and   lovely, girl,               I
e|------ ------ ------ ------|------ ------ ------ ------|
d|10--10-----10-----10-----/-|3---3------3--3---3-/------|
G#10--10-----10-----10-----/-|3---3------3--3---3-/------|
e|10--10-----10-----10-----/-|3---3------3--3---3-/------|
B|---------------------------|---------------------------|
E|---------------------------|---------------------------|

e|------ 13---- ------ 14----|------ 15---- ------ 15----|
B|-------15------------15----|-------15------------15----|
G|---------------------------|---------------------------|
D|---------------------------|---------------------------|
A|---------------------------|---------------------------|
E|---------------------------|---------------------------|





  A
e|----5- 5---5- ----5- ----5-|------ 5---3- ----3- ----2-|
B|----2--2---2------2------2-|-------2---2------2------3-|
G|----2--2---2------2------2-|-------2---2------2------2-|
D|----2--2---2------2------2-|-------2---2------2------0-|
A|----0--0---0------0------0-|-------0---0------0--------|
E|---------------------------|---------------------------|
  love you                                              Be..
e|------ ------ ------ ------|------ ------ ------ ------|
d|10--10-----10-----10-10--/|10--10-----10-----10----/-|
G#10--10-----10-----10-10--/|10--10-----10-----10----/-|
e|10--10-----10-----10-10--/|10--10-----10-----10----/-|
B|---------------------------|---------------------------|
E|---------------------------|---------------------------|

e|------ 13H1414------ 14----|1314-- 13---- 1314-- 14--15|
B|-------15---15-------15----|1515---15-----1515---15--15|
G|---------------------------|---------------------------|
D|---------------------------|---------------------------|
A|---------------------------|---------------------------|
E|---------------------------|---------------------------|





  D                           
e|----2- ----2- ----2- ----2-|----2- ----2- ----2- ----2-|
B|----3------3------3------3-|----3------3------3------3-|
G|----2------2------2------2-|----2------2------2------2-|
D|----0------0------0------0-|----0------0------0------0-|
A|---------------------------|---------------------------|
E|---------------------------|---------------------------|
 cause you're sweet  and   lovely, girl,        it's   true
e|------ ------ ------ ------|------ ------ ------ ------|
d|3---3------3------3-----/-|3---3------3------3-/------|
G#3---3------3------3-----/-|3---3------3------3-/------|
e|3---3------3------3-----/-|3---3------3------3-/------|
B|---------------------------|---------------------------|
E|---------------------------|---------------------------|

e|------ 15---- ------ 15----|------ 15---- ------ 15----|
B|-------15------------15----|-------15------------15----|
G|---------------------------|---------------------------|
D|---------------------------|---------------------------|
A|---------------------------|---------------------------|
E|---------------------------|---------------------------|





  A                Asus4/6 A    
e|5---5- ------ 5---5- ------|5----- 5----- 5----- 5-----|
B|2---2---------3---3--------|2------3------2------3-----|
G|2---2---------2---2--------|2------2------2------2-----|
D|2---2---------4---4--------|2------4------2------4-----|
A|0---0---------0---0--------|0------0------0------0-----|
E|---------------------------|---------------------------|
                                                        I
e|------ ------ ------ ------|------ ------ ------ ------|
d|10--10-----10-----10-----/|10--10-----10-----10------|
G#10--10-----10-----10-----/|10--10-----10-----10------|
e|10--10-----10-----10-----/|10--10-----10-----10------|
B|---------------------------|---------------------------|
E|---------------------------|---------------------------|
 
e|131414 151515 131414 151515|131414 151515 131414 151515|
B|151515-151515-151515-151515|151515-151515-151515-151515|
G|---------------------------|---------------------------|
D|---------------------------|---------------------------|
A|---------------------------|---------------------------|
E|---------------------------|---------------------------|





  E7
e|----0- 0---0- ----0- ----2-|----2- ------ 2---2- ----0-|
B|----3--3---3------3------3-|----3---------3---3------2-|
G|----1--1---1------1------2-|----2---------2---2------2-|
D|----2--2---2------2------0-|----0---------0---0------2-|
A|----2--2---2------2--------|-------------------------0-|
E|----0--0---0------0--------|---------------------------|     
  love you   more   than   ever,  girl,         I      do.
e|------ ------ ------ ------|------ ------ ------ ------|
d|5---5------5------5--5---/-|3---3------3------3------0-|
G#5---5------5------5--5---/-|3---3------3------3------4-|
e|5---5------5------5--5---/-|3---3------3------3------2-|
B|---------------------------|---------------------------|
E|---------------------------|---------------------------|

e|------ 17---- ------ 17----|------ 15--13 15--15 15----|
B|-------17------------17----|-------15-----15--15-15----|
G|---------------------------|---------------------------|
D|---------------------------|---------------------------|
A|---------------------------|---------------------------|
E|---------------------------|---------------------------|




                                         (.
                                     E7  A
e|----5- --5--- --5--- --5---|5----- 0---0- ------ ------|
B|---------------------------|-------3---2---------------|
G|----2--0---0---------------|-------1---2---------------|
D|--------------4---4--3---3-|2------2---2---------------|
A|---------------------------|-------2---0---------------|
E|---------------------------|-------0-------------------| 
                              Rhythm and blues
                                         (.          
e|------ ------ ------ ------|------ /---10 ------ ------|
d|---------------------------|-------/---10--------------|
G#---------------------------|-------/---10--------------|
e|---------------------------|-------/---10--------------|
B|---------------------------|---------------------------|
E|---------------------------|---------------------------|

e|131414 141414 151515 151515|141415 14--14 ------ ------|
B|151515-151515-151515-151515|151515-15--15--------------|
G|---------------------------|---------------------------|
D|---------------------------|---------------------------|
A|---------------------------|---------------------------|
E|---------------------------|---------------------------|    
                                                      

 






        B  Bend
        R  Release
        /  slide up
          slide down
        H  hammer-on
        P  pull-off
        ~  vibrato
        +  harmonic
        x  Mute note
        . - play note like a dot in standard notation
        ^ - ties two notes together
        (. Pause

 
 
Beatles - For You Blue Tab :: indexed at Ultimate Guitar.
For You Blue tabs @ 911Tabs

About the artist behind For You Blue Tab:

The Beatles were a pop and rock group from Liverpool, England formed in 1960. Primarily consisting of John Lennon (rhythm guitar, vocals), Paul McCartney (bass guitar, vocals), George Harrison (lead guitar, vocals), and Ringo Starr (drums, vocals) throughout their career, The Beatles are recognised for leading the mid-1960s musical "British Invasion" into the United States. Although their initial musical style was rooted in 1950s rock and roll and homegrown skiffle, the group explored genres ranging from Tin Pan Alley to psychedelic rock. Their clothes, styles, and statements made them trend-setters, while their growing social awareness saw their influence extend into the social and cultural revolutions of the 1960s. After the band broke up in 1970, all four members embarked on solo careers.

The Beatles are one of the most commercially successful and critically acclaimed bands in the history of popular music. The Beatles are the best-selling musical group in history. In the United Kingdom, The Beatles released more than 40 different singles, albums, and EPs that reached number one, earning more number one albums (15) than any other group in UK chart history. This commercial success was repeated in many other countries; their record company, EMI, estimated that by 1985 they had sold over one billion records worldwide.[1] According to the Recording Industry Association of America, The Beatles have sold more albums in the United States than any other band.[2] In 2004, Rolling Stone magazine ranked The Beatles number one on its list of 100 Greatest Rock & Roll Artists of All Time. According to that same magazine, The Beatles' innovative music and cultural impact helped define the 1960s, and their influence on pop culture is still evident today.

Indexed at Wikipedia.

Show us your talent, perform For You Blue Tab!

Here you can post a video or audio performance. Tell me more ...
Where can we find your performance? Tell me more ...
Your comment:
Please, log in to post your performance.