Artists by letter: A B C D E F G H I J K L M N O P Q R S T U V W X Y Z 0-9

 
Let It Bleed Tab
Artist: The Used
Song: Let It Bleed
Album: In Love And Death

Jordy ([email protected])

Tuning: Drop C (low to high DAFCGC)

Intro/Verse:

D|-------------------------------------------------------------------------|
A|-----10-10----------10-10------------------------------------------------|
F|-----10-10----------10-10------------14-14--------14-14-------10--12-----|
C|--88-------8/10-10---------10/-12-12-15-15--120-15-15-0000---x--x------|
G|--88-------8/10-10---------10/-12-12--------120-------0000---8--10-----|
C|--88-------8/10-10---------10/-12-12--------120-------0000-------------|


  Prechorus:                Chorus:

D|-------------------------|--------------------------------------------------|
A|-------------------------|10-10-10-10/-10-10-10-10--10-10-10-10-10-10-10---|
F|--14-14-14-17-17-17-15-15|10-10-10-10/-10-10-10-10--10-10-10-10-10-10-10---|
C|--15-15-15-15-15-15-15-15|-8--8--8--8/-10-10-10-10---0--0--0--0--0--0--0---|
G|--12-12--0--0--0--0--0--0|-8--8--8--8/-10-10-10-10---0--0--0--0--0--0--0---|
C|--12-12--0--0--0--0--0--0|-8--8--8--8/-10-10-10-10---0--0--0--0--0--0--0---|

Verse 2: Guitar 1

D|-------------------------------------------------------------------------|
A|-----10-10----------10-10------------------------------------------------|
F|-----10-10----------10-10------------14-14--------14-14-------10--12-----|
C|--88-------8/10-10---------10/-12-12-15-15--120-15-15-0000---x--x------|
G|--88-------8/10-10---------10/-12-12--------120-------0000---8--10-----|
C|--88-------8/10-10---------10/-12-12--------120-------0000-------------|

Verse 2: Guitar 2

D|-------------------------------------------|
A|--13/15-15-15-13/15-15-15-13/15-15-15---|
F|---x/-x--x--x--x/-x--x--x--x/-x--x--x---|
C|--10/12-12-12-10/12-12-12-10/12-12-12---|
G|-------------------------------------------|
C|-------------------------------------------|

Prechorus

Chorus

Fill:

D|-------|
A|-------|
F|-------|
C|--0----|
G|--0----|
C|--0----|

Bridge:

D|-------------------------------------------|
A|-------------------------------------------|
F|--14-14-14-10-10-10-12-12-12-7-7-7-7-7-7---|
C|---x--x--x--x--x--x--x--x--x-x-x-x-x-x-x---|
G|--12-12-12--8--8--8--8--8--8-5-5-5-5-5-5---|
C|-------------------------------------------|

D|------------------------------------------------------|
A|------------------------------------------------------|
F|------------------------------------------------------|
C|--777-333-555-000000-------------------------7-3-5-0~-|
G|--777-333-555-000000--- a few times then ----7-3-5-0~-|
C|--777-333-555-000000-------------------------7-3-5-0~-|

Verse:

D|-------------------------------------------------------------------------|
A|-----10-10----------10-10------------------------------------------------|
F|-----10-10----------10-10------------14-14--------14-14-------10--12-----|
C|--88-------8/10-10---------10/-12-12-15-15--120-15-15-0000---x--x------|
G|--88-------8/10-10---------10/-12-12--------120-------0000---8--10-----|
C|--88-------8/10-10---------10/-12-12--------120-------0000-------------|

Chorus as usual, with a second guitar doing this:

D|------------------------------------------------------------------------|
A|--15-15-15-15-15-15-17-17-17-17-13-13-13-13-13-13---15-15-15-15-15-15---|
F|---x--x--x--x--x--x--x--x--x--x--x--x--x--x--x--x----x--x--x--x--x--x---|
C|--12-12-12-12-12-12-14-14-14-14-10-10-10-10-10-10---12-12-12-12-12-12---|
G|------------------------------------------------------------------------|
C|------------------------------------------------------------------------|

D|---------------------------|-------------------------|
A|--17-17-17-17-18-18-18-18--|-15-15-15-15-15-15-17---|
F|---x--x--x--x--x--x--x--x--|--x--x--x--x--x--x--x---|
C|--14-14-14-14-15-15-15-15--|-12-12-12-12-12-12-14---|
G|---------------------------|-------------------------|
C|---------------------------|-------------------------|

Outro:

D|------------------------------------------------------|
A|------------------------------------------------------|
F|------------------------------------------------------|
C|--777-333-555-000000-------------------------7-3-5-0~-|
G|--777-333-555-000000--- a few times then ----7-3-5-0~-|
C|--777-333-555-000000-------------------------7-3-5-0~-|

 
 
Used - Let It Bleed Tab :: indexed at Ultimate Guitar.
Let It Bleed tabs @ 911Tabs

About the artist behind Let It Bleed Tab:

The Used is a rock band from Orem, Utah. Their sound has been classified under many genres and subgenres of rock. They signed with Reprise Records in late 2001 and rose to fame in June 2002 after releasing their debut self-titled album, The Used. They followed up with their second album, In Love and Death, in September 2004 and their third album, Lies for the Liars, in May 2007. An EP, Shallow Believer, was released in February 2008 that featured the band's B-sides. They are currently working on their fourth studio album, due out in late 2008. They have achieved a Gold or Platinum status in over 6 countries worldwide.[4]

Indexed at Wikipedia.

Show us your talent, perform Let It Bleed Tab!

Here you can post a video or audio performance. Tell me more ...
Where can we find your performance? Tell me more ...
Your comment:
Please, log in to post your performance.