Artists by letter: A B C D E F G H I J K L M N O P Q R S T U V W X Y Z 0-9

 
Gomers Theme
Verse 1:
E                       E7          A
In this place, saw her face. He was more than happier
E                    E7             A                            
Made for Him, it's a sin, that she was not faithful

E
(drums)

Verse 2:
E                       E7         A
She couldn't be, foolishly more unfaithful if she tried
E                      E7          A
He did not care wanted her despite lies and wandering eyes

Pre Chorus:
G#m        A               E
      He deserves the very best
G#m           A                 B
      But He loves her none the less

Chorus:
E         B               C#m - A
She's forgotten her first love
E       B               C#m         A
He's forgotten that she ever went away and broke His heart.

Verse 3:
E                        E7       A
Lavished on, silver and gold, anything she needed
E                        E7              A
Wasted thoughts, broken hearts, love was not acknowledged.

Bridge
C#m      A                  F#m           G#m             C#m
God only knows that He has shown her more love than she deserves
                A                 F#m
There'll come a time, when she'll find 
              B
that He's not there to give her love and He'll be gone away from her forever

E                E7 - A
(Whistling part)
E                E7 - A - B
(Whistling part)

Solo: (play the whole phrase Legato with Wah)
e------------------------------------------------------------------|
B-9--10--9-----------12--10--9---------------9---10---9------9b-9--|
G-------------11------------------11-----11---------------11-------|
D------------------------------------------------------------------|
A------------------------------------------------------------------|
E------------------------------------------------------------------|

e--------------------12------14b---14--12------17-16------19b-19---|
B-9--10--12----9--10----------------------------------17-----------|
G------------------------------------------------------------------|
D------------------------------------------------------------------|
A------------------------------------------------------------------|
E------------------------------------------------------------------|

e-17-16----------------------------------|
B-------17--19b--19----17----19----19b---|
G----------------------------------------|
D----------------------------------------|
A----------------------------------------|
E----------------------------------------|

 
 
Third Day - Gomers Theme :: indexed at Ultimate Guitar.
Gomers Theme tabs @ 911Tabs

About the artist behind Gomers Theme:

Third Day is a CCM band formed in Marietta, Georgia during the 1990s. The band was founded by lead singer Mac Powell and guitarist Mark Lee. The other band members are Tai Anderson (bass), and David Carr (drums). The band's name is a reference to the biblical account of Jesus rising from the dead on the third day following his crucifixion.

Indexed at Wikipedia.

Show us your talent, perform Gomers Theme!

Here you can post a video or audio performance. Tell me more ...
Where can we find your performance? Tell me more ...
Your comment:
Please, log in to post your performance.