Artists by letter: A B C D E F G H I J K L M N O P Q R S T U V W X Y Z 0-9

 
Nada Nada
Super Especial - Nada Nada
Super Especial EP
Es mi primera tab, cualquier error lo comentan
Afinación estándar

Acordes
B:   799877
D#m: x68876
G#m: 466444
E:   x79997
A#m: 688666

[Intro]
e|-----------------|-----------------------|-------------------|----------------------|
B|-----------------|-----------------------|-------------------|----------------------|
G|-----------------|-----------------------|-------------------|----------------------|
D|-----------------|-----------------------|-------------------|----------------------|
A|-----------------|-6-6-6-6-6-6-6-6-6-6-6-|-------------------|-7-7-7-7-7-7-7-7-7-7-7|
E|-7-7-7-7-7-7-7-7-|-----------------------|-4-4-4-4-4-4-4-4-4-|----------------------|x2

[Verso] (Prácticamente lo mismo que el intro, pero haciendo el acorde de quinta)
   (B5)           (D#5)                   (G#5)           (E5)
e|-----------------|-----------------------|-------------------|----------------------|
B|-----------------|-----------------------|-------------------|----------------------|
G|-----------------|-----------------------|-------------------|----------------------|
D|-----------------|-8-8-8-8-8-8-8-8-8-8-8-|-------------------|-9-9-9-9-9-9-9-9-9-9-9|
A|-9-9-9-9-9-9-9-9-|-6-6-6-6-6-6-6-6-6-6-6-|-6-6-6-6-6-6-6-6-6-|-7-7-7-7-7-7-7-7-7-7-7|
E|-7-7-7-7-7-7-7-7-|-----------------------|-4-4-4-4-4-4-4-4-4-|----------------------|x2

[Coro]
B
Sabe bien decir que estamos bien
D#m
Sabe mal decir que estamos mal
G#m                         E
Lo mejor parece es no decir nada, nada, nada
B
Sabe bien decir que estamos mal
D#m
Sabe mal decir que estamos bien
G#m                         E
Lo mejor parece es no decir nada, nada, nada

[Intro]
e|-----------------|-----------------------|-------------------|----------------------|
B|-----------------|-----------------------|-------------------|----------------------|
G|-----------------|-----------------------|-------------------|----------------------|
D|-----------------|-----------------------|-------------------|----------------------|
A|-----------------|-6-6-6-6-6-6-6-6-6-6-6-|-------------------|-7-7-7-7-7-7-7-7-7-7-7|
E|-7-7-7-7-7-7-7-7-|-----------------------|-4-4-4-4-4-4-4-4-4-|----------------------|

[Verso]
   (B5)           (D#5)                   (G#5)           (E5)
e|-----------------|-----------------------|-------------------|----------------------|
B|-----------------|-----------------------|-------------------|----------------------|
G|-----------------|-----------------------|-------------------|----------------------|
D|-----------------|-8-8-8-8-8-8-8-8-8-8-8-|-------------------|-9-9-9-9-9-9-9-9-9-9-9|
A|-9-9-9-9-9-9-9-9-|-6-6-6-6-6-6-6-6-6-6-6-|-6-6-6-6-6-6-6-6-6-|-7-7-7-7-7-7-7-7-7-7-7|
E|-7-7-7-7-7-7-7-7-|-----------------------|-4-4-4-4-4-4-4-4-4-|----------------------|

[Coro]
B
Sabe bien decir que estamos bien
D#m
Sabe mal decir que estamos mal
G#m                         E
Lo mejor parece es no decir nada, nada, nada
B
Sabe bien decir que estamos mal
D#m
Sabe mal decir que estamos bien
G#m                         E
Lo mejor parece es no decir nada, nada, nada

[Solo]
Guitarra 2
e|------------------|----------------|------------------|-----------------|
B|------------------|----------------|------------------|-----------------|
G|-8-8-8-8-8-8-8-8--|8-8-8-8-8-8-8-8-|-4-4-4-4-4-4-4-4--|-9-9-9-9-9-9-9-9-|
D|--9-9-9-9-9-9-9-9-|-8-8-8-8-8-8-8-8|--6-6-6-6-6-6-6-6-|--9-9-9-9-9-9-9-9|
A|------------------|----------------|------------------|-----------------|
E|------------------|----------------|------------------|-----------------|
( se toca durante todo el solo de fondo)

Guitarra 1
e|-11-9----9----|-11-9----9----|---------------------|
B|------12---12-|------12---11-|-12-9-11----9--------|
G|--------------|--------------|---------11---11-9-8-|
D|--------------|--------------|---------------------|
A|--------------|--------------|---------------------|
E|--------------|--------------|---------------------|x4

e|-14-12-11-12-11--|-14-12-11-12-|---11----------------------|
B|-----------------|-------------|14----12-14-11-12----11----|
G|-----------------|-------------|------------------13----11-|
D|-----------------|-------------|---------------------------|
A|-----------------|-------------|---------------------------|
E|-----------------|-------------|---------------------------|

[Coro]
B
Sabe bien decir que estamos bien
D#m
Sabe mal decir que estamos mal
G#m                         E
Lo mejor parece es no decir nada, nada, nada
B
Sabe bien decir que estamos mal
D#m
Sabe mal decir que estamos bien
G#m                         E
Lo mejor parece es no decir nada, nada, nada

[Outro]
Se repite el solo en la primera guitarra, mientras la segunda toca el coro.

  B - A#m - G#m

e|-----------------|
B|-----------------|
G|-----------------|
D|-----------------|
A|-----------------|
E|-2-2-4-4-6-6-7-7-|
 
 
Super Especial - Nada Nada :: indexed at Ultimate Guitar.
Nada Nada tabs @ 911Tabs

Quick tip, so you can enjoy Nada Nada even more:

You might want to transpose the song if it is too high or too low for you to sing. Just click the desired option while playing a song and all the chords will automatically be transponded into a new key.

Show us your talent, perform Nada Nada!

Here you can post a video or audio performance. Tell me more ...
Where can we find your performance? Tell me more ...
Your comment:
Please, log in to post your performance.