Artists by letter: A B C D E F G H I J K L M N O P Q R S T U V W X Y Z 0-9

 
Monster Inside
[Intro]
B C#m D Bb   C#m D
B C#m D E  D C#m Bb
B C#m D E  D E   F#m B Bb
//F#m here is on fret 9
//(Optional)Last 2 chords use octave on frets 14 & 13

[Verse 1]
(Lead guitar licks to play over rhythm only in verse 1)
(Lead 1)
e|------------------------------------------------------------------|
b|------------------------------------------------------------------|
G|------7-7-6-6-7-7-----7-7-6-6-7-7-----7-7-6-6-7-7-----7-7-6-6-7-7-|(x3)
D|--9-9-------------9-9-------------8-8-------------8-8-------------|
A|------------------------------------------------------------------|
E|------------------------------------------------------------------|

e|------------------------------------------------------------------|
b|------------------------------------------------------------------|
G|------7-7-6-6-7-7-----7-7-6-6-7-7-----7-7-6-6-7-7-9-9-7-7-6-6-----|
D|--9-9-------------9-9-------------8-8-------------------------8-8-|
A|------------------------------------------------------------------|
E|------------------------------------------------------------------|

(Lead 2) 
(play over Lead 1 after 2 repeats of Lead 1)
e|-----------------------------------------------------------------------------------|
b|-----------------------------------------------------------------------------------|
G|------11-11-9-9-11-11-----11-11-9-9-11-11------11-11-9-9-11-11-----11-11-9-9-11-11-|
D|--9-9-----------------9-9------------------8-8-----------------8-8-----------------|
A|-----------------------------------------------------------------------------------|
E|-----------------------------------------------------------------------------------|

e|-------------------------------------------------------------------------------------|
b|-------------------------------------------------------------------------------------|
G|------11-11-9-9-11-11-----11-11-9-9-11-11------11-11-9-9-11-11-12-12-11-11-9-9-------|
D|--9-9-----------------9-9------------------8-8---------------------------------11-11-|
A|-------------------------------------------------------------------------------------|
E|-------------------------------------------------------------------------------------|

        B              F#m
Now I'm scared to even open my mouth
                G
Because there's something deep inside of me
    A            F#m
You don't know about
      B                F#m
And I wish there was a way you could see
           G
If I could show maybe I'd know
         D        F#m
If I'm a man or a beast

[Chorus]
(Lead 1)
e|-----10-----10------10-----10-|
b|-7-9----7-9-------7----7-9----|
G|------------------------------|(x3) (pause) (x3) (pause)
D|------------------------------|
A|------------------------------|
E|------------------------------|

           G
Just take one look in my eyes
                A
You'd see right through my disguise
              F#m
She says that when I'm nearby
             B       A     G  F#m
That she can feel my every move
     G
When I fell apart
                A
Yeah, something changed in my heart
           F#m
As you can tell from these scars
            B   A    G   F#m A#     B
I'm not the man that you knew before
(B)                             C
I found something that makes me feel alive
            G
Yet somehow dead inside
            F#m
It makes me feel
          F#m G C#m D   B
It makes me numb at once
(B)
It makes no sense
             C
Yet it still helps me see
        G              F#m                  B
So am I soon to be the monster that I despise?

[Quick Solo]
e|--------------------|
b|--------------------|
G|---4-6-7--4--4~-6-3~|
D|-6------------------|
A|--------------------|
E|--------------------|

[Verse 2]
B
She thinks she's mine
G                      F#m
She must be out of her mind
B                               G
I said "get back" but she wants more
                   F#m
And now her body's on the floor
B
I've got this thing in my heart
          G
I have to hide
N.C
It's eating at me from the inside

[Chorus]
              G
Just take one look in my eyes
                A
You'd see right through my disguise
              F#m
She says that when I'm nearby
             B       A     G   F#m
That she can feel my every move (Feel my every move)
     G
When I fell apart
                A
Yeah, something changed in my heart
           F#m
As you can tell from these scars
            B   A    G   F#m  A#    B
I'm not the man that you knew before
(B)                             D
I found something that makes me feel alive
            G
Yet somehow dead inside
            F#m
It makes me feel
           F#m G C#m D B
It makes me numb at once
(B)
It makes no sense
             D
Yet it still helps me see
        G              F#m            B
So am I soon to be the monster that I despise?
N.C
(Monster that I despise [x3])

[Bridge]
B             D                      G   F#m
It's eating at me from the inside
(Lead 1 Quick Lick)
e|----------------|
b|----------------|
G|-6/9-9\6-6-6/7~-|
D|----------------|
A|----------------|
E|----------------|

[Chorus]
B                               D
I found something that makes me feel alive
            G
Yet somehow dead inside
            F#m
It makes me feel
           F#m G C#m D B
It makes me numb at once
(B)
It makes no sense
             D
Yet it still helps me see
        G             F#m                   B
So am I soon to be the monster that I despise?
B      B    B     B F#m    B B
Monster that I despise....


***********************************

| ~  - Vibrato
| /   Slide up
| \   Slide down

***********************************
 
 
Natewantstobattle - Monster Inside :: indexed at Ultimate Guitar.
Monster Inside tabs @ 911Tabs

Quick tip, so you can enjoy Monster Inside even more:

If you don't really know how to deal with "Absus4" chord and his equally confusing brothers, just put the mouse cursor over them and you will be shown a helpful chord diagram.

Show us your talent, perform Monster Inside!

Here you can post a video or audio performance. Tell me more ...
Where can we find your performance? Tell me more ...
Your comment:
Please, log in to post your performance.