Artists by letter: A B C D E F G H I J K L M N O P Q R S T U V W X Y Z 0-9

 
Pollyanna
Pollyanna by DZ Deathrays

Tabbed by Pepistone, kudos to Modnarandom for creating the first version of the tab of this song

Tuning: Drop D


[Intro]
Guitar 1
e|-----------------|-------------------------|
B|-----------------|-------------------------|
G|-----------------|-------------------------|
D|-----3-----------|-------------------------|
A|-----------3-4-5-|----3--------------------|
D|-5-----5-5-------|-1-----1-1-2-3-4---------|x6

Guitar 2

e||--------------------------|--------------------------||
B||--8--8--8--8--8--6--6--6--|--5--5--5--4--4--4--------||
G||--------------------------|--------------------0--0--||
D||--------------------------|--------------------------||
A||--------------------------|--------------------------||
E||--------------------------|--------------------------||x2

E||--------------------------|--------------------------||
B||--8--8--8--8--8--8--8--8--|--8--8--8--8--8--8--8--8--||
G||--------------------------|--------------------------||
D||--------------------------|--------------------------||
A||--------------------------|--------------------------||
E||--------------------------|--------------------------||

e||--------------------------|--------------------------||
B||--8--8--8--8--8--6--6--6--|--5--5--5--4--4--4--------||
G||--------------------------|--------------------0--0--||
D||--------------------------|--------------------------||
A||--------------------------|--------------------------||
E||--------------------------|--------------------------||

[Verse]
e|-----------------|---------------------------------|
B|-----------------|---------------------------------|
G|-----------------|---------------------------------|
D|--5---5-x-x-8-8--|-12--12--12-x-x-10-x-x-8-x-x-----|
A|--5---5-x-x-8-8--|-12--12--12-x-x-10-x-x-8-x-x-----|
E|--5---5-x-x-8-8--|-12--12--12-x-x-10-x-x-8-x-x-----|

e|----------------|---------------------------|
B|----------------|---------------------------|
G|----------------|---------------------------|
D|--5---5-x-x-8-8-|--12--12--12-x-x--3-3-3-3--|
A|--5---5-x-x-8-8-|--12--12--12-x-x--3-3-3-3--|
E|--5---5-x-x-8-8-|--12--12--12-x-x--3-3-3-3--|

e|-----------------|-------------------------|
B|-----------------|-------------------------|
G|-----------------|-------------------------|
D|-----3-----------|-------------------------|
A|-----------3-4-5-|----3--------------------|
D|-5-----5-5-------|-1-----1-1-2-3-4---------|x2

e|-----------------|---------------------------------|
B|-----------------|---------------------------------|
G|-----------------|---------------------------------|
D|--5---5-x-x-8-8--|-12--12--12-x-x-10-x-x-8-x-x-----|
A|--5---5-x-x-8-8--|-12--12--12-x-x-10-x-x-8-x-x-----|
E|--5---5-x-x-8-8--|-12--12--12-x-x-10-x-x-8-x-x-----|

e|----------------|---------------------------|
B|----------------|---------------------------|
G|----------------|---------------------------|
D|--5---5-x-x-8-8-|--12--12--12-x-x--3-3-3-3--|
A|--5---5-x-x-8-8-|--12--12--12-x-x--3-3-3-3--|
E|--5---5-x-x-8-8-|--12--12--12-x-x--3-3-3-3--|

e|-----------------|-------------------------|
B|-----------------|-------------------------|
G|-----------------|-------------------------|
D|-----3-----------|-------------------------|
A|-----------3-4-5-|----3--------------------|
D|-5-----5-5-------|-1-----1-1-2-3-4---------|x2

[Pre-Chorus] 
e|----------------------------------------------------------------|
B|----------------------------------------------------------------|
G|--7-------------------------------------------------------------|
D|--7-------------------------------------------------------------|
A|--5--(x16)------------------------------------------------------|
D|----------------------------------------------------------------|

[Chorus] 
Guitar 1 
e|-----------------------------|--------------------------------|
B|-----------------------------|--------------------------------|
G|-----------------------------|------------------------7-7-----|
D|--8-8-8---5-5---0-0-0---1-1--|--8-8-8---3-3---5-5-5---7-7-----|
A|--8-8-8---5-5---0-0-0---1-1--|--8-8-8---3-3---5-5-5---5-5-----|
D|--8-8-8---5-5---0-0-0---1-1--|--8-8-8---3-3---5-5-5-----------|x2

Guitar 2

e|----------------------|----------------------------|
B|-------------11-10-13-|----------------------------|
G|--12-10---------------|-12-10----------------------|
D|--------12------------|-------12---10-12--7-10-----|
A|----------------------|----------------------------|
D|----------------------|----------------------------|x2

[Post-Chorus] 
e|-----------------|-------------------------|
B|-----------------|-------------------------|
G|-----------------|-------------------------|
D|-----3-----------|-------------------------|
A|-----------3-4-5-|----3--------------------|
D|-5-----5-5-------|-1-----1-1-2-3-4---------|x2

[Verse] 
e|----------------------------------------------------------------|
B|----------------------------------------------------------------|
G|----------------------------------------------------------------|
D|--5-------------------------------------------------------------|
A|--5-------------------------------------------------------------|
D|--5-------------------------------------------------------------|

Guitar 1

e|-----------------|-------------------------|
B|-----------------|-------------------------|
G|-----------------|-------------------------|
D|-----3-----------|-------------------------|
A|-----------3-4-5-|----3--------------------|
D|-5-----5-5-------|-1-----1-1-2-3-4---------|x4

Guitar 2

e||--------------------------|--------------------------||
B||--8--8--8--8--8--6--6--6--|--5--5--5--4--4--4--------||
G||--------------------------|--------------------0--0--||
D||--------------------------|--------------------------||
A||--------------------------|--------------------------||
E||--------------------------|--------------------------||x2

E||--------------------------|--------------------------||
B||--8--8--8--8--8--8--8--8--|--8--8--8--8--8--8--8--8--||
G||--------------------------|--------------------------||
D||--------------------------|--------------------------||
A||--------------------------|--------------------------||
E||--------------------------|--------------------------||

e||--------------------------|--------------------------||
B||--8--8--8--8--8--6--6--6--|--5--5--5--4--4--4--------||
G||--------------------------|--------------------0--0--||
D||--------------------------|--------------------------||
A||--------------------------|--------------------------||
E||--------------------------|--------------------------||

[Chorus] 
Guitar 1

e|-----------------------------|--------------------------------|
B|-----------------------------|--------------------------------|
G|-----------------------------|------------------------7-7-----|
D|--8-8-8---5-5---0-0-0---1-1--|--8-8-8---3-3---5-5-5---7-7-----|
A|--8-8-8---5-5---0-0-0---1-1--|--8-8-8---3-3---5-5-5---5-5-----|
D|--8-8-8---5-5---0-0-0---1-1--|--8-8-8---3-3---5-5-5-----------|x2

Guitar 2

e|----------------------|----------------------------|
B|-------------11-10-13-|----------------------------|
G|--12-10---------------|-12-10----------------------|
D|--------12------------|-------12---10-12--7-10-----|
A|----------------------|----------------------------|
D|----------------------|----------------------------|x2

[Bridge]

Guitar 1

e||-----|-----|--2-|-(2)-|----|-----|--2--|-(2)-------||
B||--6--|--3--|--3-|-(3)-|--6-|--3--|--3--|-(3)--4----||
G||--7--|--3--|--2-|-(2)-|--7-|--3--|--2--|-(2)--3----||
D||--8--|--5--|--0-|-(0)-|--8-|--5--|--0--|-(0)--1----||
A||--8--|--5--|--0-|-(0)-|--8-|--5--|--0--|-(0)--1----||
D||-----|-----|--0-|-(0)-|----|-----|--0--|-(0)--1----||x2

Guitar 2

e||----------------------------------|---------------------------------|
B||----------------------------------|---------------------------------|
G||----------5-5-7-7-----------------|---------------------------------|
D||--------------------------5-5-7-7-|---------------------------------|
A||----------------------------------|---------------------------------|
D||--8-8-8-8---------5-5-5-5---------|-0-0-0-0-0-0-0-0-0-0-0-0-0-0-0-0-|
        
e||----------------------------------|---------------------------------||
B||----------------------------------|---------------------------------||
G||----------5-5-7-7-----------------|---------------------------------||
D||--------------------------5-5-7-7-|---------------------------------||
A||----------------------------------|---------------------------------||
D||--8-8-8-8---------5-5-5-5---------|-0-0-0-0-0-0-0-0-0-0-0-0-1-1-1-1-||x2

[Outro] 
Guitar 1
e|-----------------|-------------------------|
B|-----------------|-------------------------|
G|-----------------|-------------------------|
D|-----3-----------|-------------------------|
A|-----------3-4-5-|----3--------------------|
D|-5-----5-5-------|-1-----1-1-2-3-4---------|x4

Guitar 2

e||--------------------------|--------------------------||
B||--8--8--8--8--8--6--6--6--|--5--5--5--4--4--4--------||
G||--------------------------|--------------------0--0--||
D||--------------------------|--------------------------||
A||--------------------------|--------------------------||
E||--------------------------|--------------------------||x2

E||--------------------------|--------------------------||
B||--8--8--8--8--8--8--8--8--|--8--8--8--8--8--8--8--8--||
G||--------------------------|--------------------------||
D||--------------------------|--------------------------||
A||--------------------------|--------------------------||
E||--------------------------|--------------------------||

e||--------------------------|--------------------------||
B||--8--8--8--8--8--6--6--6--|--5--5--5--4--4--4--------||
G||--------------------------|--------------------0--0--||
D||--------------------------|--------------------------||
A||--------------------------|--------------------------||
E||--------------------------|--------------------------||

[End] 
e|----------------------------------------------------------------|
B|----------------------------------------------------------------|
G|----------------------------------------------------------------|
D|--5-------------------------------------------------------------|
A|--5-------------------------------------------------------------|
D|--5-------------------------------------------------------------|



************************************

| x    Dead note
| (n)  Ghost note
 

************************************
 
 
Dz Deathrays - Pollyanna :: indexed at Ultimate Guitar.
Pollyanna tabs @ 911Tabs
People who played Dz Deathrays - Pollyanna also played these songs by Dz Deathrays:
No Sleep Tab, Gina Works At Hearts Tab, Northern Lights Tab, Gebbie Street Tab, Gina Works At Hearts Tab, Fixations Tab

Quick tip, so you can enjoy Pollyanna even more:

YourChords.com Guitar Chords and Tabs Archive is currently indexing over 240'000 songs from 21'000+ different artists. And new chords just keep on coming in, so you will surely never run out of them.

Show us your talent, perform Pollyanna!

Here you can post a video or audio performance. Tell me more ...
Where can we find your performance? Tell me more ...
Your comment:
Please, log in to post your performance.