Artists by letter: A B C D E F G H I J K L M N O P Q R S T U V W X Y Z 0-9

 
I Was Wrong
[Intro]
    Dm7  Am        Dm7   Am
E|-5---5--5---------5----5---------------------------|
B|-5h6-6--5---------5h6--5---------------------------|
G|-5---5--5---------5----5---------------------------|
D|-5h7-7--7---------5h7--7---------------------------| x2
A|-5---5--7---------5----7--------5--7--5h7p5-----5--|
E|--------5--5--8--------5--5--8---------------8-----|

You can either continue the intro right into the verse until you hit the Gm chord, or to make it easier
you can just play the chords as is without the filler he throws in.

[Verse]
Dm7       Am               Dm7          Am
I've been thinking 'bout my thoughtless words
Dm7   Am                     Dm7        Am
And I know just how much they must have hurt
Gm                Fm Gm
And I take it back
Gm
Won't you let me take it back

    Dm7  Am        Dm7   Am
E|-5---5--5---------5----5---------------------------|
B|-5h6-6--5---------5h6--5---------------------------|
G|-5---5--5---------5----5---------------------------|
D|-5h7-7--7---------5h7--7---------------------------| x2
A|-5---5--7---------5----7--------5--7--5/7\5-----5--|
E|--------5--5--8--------5--5--8---------------8-----|

Dm7     Am                 Dm7        Am
You know I told you that I don't love you
Dm7      Am                 Dm7     Am
That I'd be better off with someone new
Gm
But I take it back
Gm                       A
Won't you let me take it back

[Chorus]
Dm7                Am      Gm
Girl you know that I-------I still love you
Dm7               Am      Gm
And you know that I-------I'm so alone
Dm7          Am      Gm
I don't know whyyyyyyy
Gm          Fm Gm
I told you that I didn't need you
                       (mute)
Can't you see that baby I was wrong

[Solo]
E|----------------------------------------------------------------|
B|----------------6b7-6b7-6b7-6b7-6b7-6b7-------6b7---------------|
G|------------5-7-------------------------7-5-7-----7-------------|
D|------3-5/7-----------------------------------------------------|
A|--3h5-----------------------------------------------------------|
E|----------------------------------------------------------------|

E|-----------------------8----------------------------------------|
B|----6-8-8b10b8p6---------8b10-6-8-6----8b10-8b11-8-8p6----------|
G|--7--------------7-7-7--------------7------------------5--------|
D|----------------------------------------------------------------|
A|----------------------------------------------------------------|
E|----------------------------------------------------------------|

E|----------------------------------------------------------------|
B|-6-8-6h8p6------------------------------------------------------|
G|-----------7-5h7p5----------------------------------------------|
D|-------------------7\5p3---------------------3-5-3b4------------|
A|-------------------------5-5-5-5-5-5-5-3h5-5---------5-5-5------|
E|----------------------------------------------------------------|

E|----------------------------------------------------------------|
B|----------------------------------------------------------------|
G|----------------------------------------------------------------|
D|-------------------------------------------3-5-3-5b6-3-5-3b4----|
A|-3h5-5-5-5-5-5-3h5-5-5-5-5-5-3h5-5-5-5-5-5-------------------5-5|
E|----------------------------------------------------------------|

[Verse]
Bb7     A                       Dm7   Am
What I wouldn't give to be your lover again
Bb7     A                    Dm7  Am
All I want to do is touch your skin
Bb7          A
If I had you right here right now
Gm
I'd tell you, tell you, tell you, tell you

[Chorus]
Dm7                Am      Gm
Girl you know that I-------I still love you
Dm7               Am      Gm
And you know that I-------I'm so alone
Dm7          Am      Gm
I don't know whyyyyyyy
Gm          Fm Gm
I told you that I didn't need you
                       (mute)
Can't you see that baby I was wrong

*************************
p - Pull-off
h - Hammer-on
b - Bend
/ - Slide up
\ - Slide down
*************************
 
 
Chris Stapleton - I Was Wrong :: indexed at Ultimate Guitar.
I Was Wrong tabs @ 911Tabs

Quick tip, so you can enjoy I Was Wrong even more:

After the registration (which takes just 10 seconds, remember?) you will be able to use your profile - your very own piece of YourChords.com.

Show us your talent, perform I Was Wrong!

Here you can post a video or audio performance. Tell me more ...
Where can we find your performance? Tell me more ...
Your comment:
Please, log in to post your performance.