Artists by letter: A B C D E F G H I J K L M N O P Q R S T U V W X Y Z 0-9

 
Generation Fucked
[Intro, Verse]
4/4
eb|------------|---------------------------|
Bb|------------|---------------------------|
Gb|------------|---------------------------|
Db|------------|---------------------------|
Ab|-10-10-8-10-|----10-10-8-11--10-10-8-10-|
Db|------------|---------------------------|

eb|--------------------------|
Bb|--------------------------|
Gb|------------10------------|
Db|---10-11-12---12-11-10----|x8
Ab|-10-----------------------|
Db|--------------------------|
with Whammy Pedal, Ring Modulator

[Pre-Chorus]
6/8
eb|---------------------------------------|
Bb|---------------------------------------|
Gb|---------------------------------------|
Db|----5-5-------5-5-------5-5-------6-6--|
Ab|---------------------------------------|
Db|-5---------5---------5---------5-------|
with Wah Pedal

[Chorus]
4/4
eb|--------------|
Bb|--------------|
Gb|--------------|
Db|-----/10-13---| Repeat
Ab|-10-----------|
Db|--------------|

*********************************** 
 
|/ Slide-up

***********************************
 
 
Wakrat - Generation Fucked :: indexed at Ultimate Guitar.
Generation Fucked tabs @ 911Tabs
People who played Wakrat - Generation Fucked also played these songs by Wakrat:
New Clear

Quick tip, so you can enjoy Generation Fucked even more:

If you don't really know how to deal with "Absus4" chord and his equally confusing brothers, just put the mouse cursor over them and you will be shown a helpful chord diagram.

Show us your talent, perform Generation Fucked!

Here you can post a video or audio performance. Tell me more ...
Where can we find your performance? Tell me more ...
Your comment:
Please, log in to post your performance.