Artists by letter: A B C D E F G H I J K L M N O P Q R S T U V W X Y Z 0-9

 
Flight Of The Bumblebee
[INTRO]

e|-12-11-10-9--10-9-8-7--8-7-6-5-----------------------------------------------------------|
B|-------------------------------9-8-7-6---------------------------------------------------|
G|---------------------------------------9-8-7-6--7-6-5-4--5-4-3-2-------------------------|
D|-----------------------------------------------------------------6-5-4-3-----------------|
A|-------------------------------------------------------------------------7-6-5-4-5-4-3-2-|
E|-----------------------------------------------------------------------------------------|


e|-----------------------------------------------------------------------------------------|
B|-----------------------------------------------------------------------------------------|
G|-----------------------------------------------------------------------------------------|
D|-----------------------------------------------------------------------------------------|
A|-7-6-5-4--5-4-3-2--7-6-5-4------------------4-5-6----------------------------------------|
E|--------------------------8-7-6-5-4-5-6-7-8----------------------------------------------|


[MAIN THEME I] (Am)

e|-----------------------------------------------------------------------------------------|
B|-----------------------------------------------------------------------------------------|
G|-----------------------------------------------------------------------------------------|
D|-----------------------------------------------------------------------------------------|
A|-7-6-5-4----8-7-6-7-6-5-4----4-5-6-7-6-5-4---8-7-6-7-6-5-4---4-5-6-----------------------|
E|---------8----------------8----------------8---------------8-----------------------------|

 
[MAIN THEME II] (Am)

e|-----------------------------------------------------------------------------------------|
B|-----------------------------------------------------------------------------------------|
G|-----------------------------------------------------------------------------------------|
D|---------------------------------------------------------------4-5-6---------------------|
A|-7-6-5-4-5-4-------4-5-6-7-8-7-6---7-6-5-4-5-4-------4-5-6-7-8---------------------------|
E|-------------8-7-8-----------------------------8-7-8-------------------------------------|


[MAIN THEME I] (Dm)

e|-----------------------------------------------------------------------------------------|
B|-----------------------------------------------------------------------------------------|
G|-----------------------------------------------------------------------------------------|
D|-7-6-5-4----8-7-6-7-6-5-4----4-5-6-7-6-5-4---8-7-6-7-6-5-4---4-5-6-----------------------|
A|---------8----------------8----------------8---------------8-----------------------------|
E|-----------------------------------------------------------------------------------------|


[MAIN THEME II] (Dm)

e|-----------------------------------------------------------------------------------------|
B|-----------------------------------------------------------------------------------------|
G|-----------------------------------------------------------------------------------------|
D|-7-6-5-4-5-4-------4-5-6-7-8-7-6---7-6-5-4-5-4-------4-5-6-7-8-7-------------------------|
A|-------------8-7-8-----------------------------8-7-8-------------------------------------|
E|-----------------------------------------------------------------------------------------|


[BRIDGE]

e|-----------------------------------------------------------------------------------------|
B|-----------------------------------------------------------------------------------------|
G|----------------------------------5h6h7p6p5-6h7h8p7p6---------(6h7)(6h8)-6-7-8-7-6-7-8---|
D|(6h7)(6h8)(6h7)(6h8)-6-7-8-7-6-7-8-------------------------------------------------------|
A|-----------------------------------------------------(4h5)(4h6)--------------------------|
E|-----------------------------------------------------------------------------------------|
  (Repeat a few times)


e|-----------------------------------------------------------------------------------------|
B|-6h7h8p7p6h7h8---------------------------------------------------------------------------|
G|---------------7-6-5-4---8-7-6-5-4-5-------4-5-6-7-6-7-8---------------------------------|
D|-----------------------8-------------8-7-8-----------------------------------------------|
A|-----------------------------------------------------------------------------------------|
E|-----------------------------------------------------------------------------------------|


e|-----------------------------------------------------------------------------------------|
B|-----------------------------------------------------------------------------------------|
G|--9-8-7-6--7-6-5-4--5-4-3-2--------------------------------------------------------------|
D|-----------------------------6-5-4-3-----------------------------------------------------|
A|-------------------------------------(7h8p7p6h7)---7-6-5-4--5-4-3-2--3-2-1-0-------------|
E|------------------------------------------------------------------------------4-3-2-1-0--|
                                       (Repeat a few times)


e|-----------------------------------------------------------------------------------------|
B|-----------------------------------------------------------------------------------------|
G|---------------------------------------------------------------2-3-4-5--6-7-8------------|
D|-----------------------------------0-1-2-3-4-5-6-5-4-3-2-4-5-6---------------------------|
A|-------------------------0-1-2-3-4-------------------------------------------------------|
E|-(1h2p1p0h1)---0-1-2-3-4-----------------------------------------------------------------|
   (Repeat a few times)


[MAIN THEME I] (Am)

e|-----------------------------------------------------------------------------------------|
B|-----------------------------------------------------------------------------------------|
G|-9-8-7-6----10-9-8-9-8-7-6----6-7-8----9-8-7-6----10-9-8-9-8-7-6----6-7-8----------------|
D|---------10----------------10------------------10----------------10----------------------|
A|-----------------------------------------------------------------------------------------|
E|-----------------------------------------------------------------------------------------|


[MAIN THEME II] (Am)

e|-----------------------------------------------------------------------------------------|
B|-------------------------------------------------------------------7-8-9-----------------|
G|-9-8-7-6-7-6---------6-7-8-9-10-9-8----9-8-7-6-7-6---------6-7-8-9-----------------------|
D|-------------10-9-10-------------------------------10-9-10-------------------------------|
A|-----------------------------------------------------------------------------------------|
E|-----------------------------------------------------------------------------------------|


[MAIN THEME I] (Dm)

e|-----------------------------------------------------------------------------------------|
B|-10-9-8-7-----11-10-9-10-9-8-7----7-8-9----10-9-8-7-----11-10-9-10-9-8-7-----------------|
G|----------10-------------------10-------------------10-------------------10--------------|
D|-----------------------------------------------------------------------------------------|
A|-----------------------------------------------------------------------------------------|
E|-----------------------------------------------------------------------------------------|


MAIN THEME II (Dm)

e|----------------------------------------------------------------------------9-10-11------|
B|-10-9-8-7-8-7---------7-8-9-10-11-10-9----10-9-8-7-8-7----------9-10-11-12---------------|
G|--------------10-9-10----------------------------------10-9-10---------------------------|
D|-----------------------------------------------------------------------------------------|
A|-----------------------------------------------------------------------------------------|
E|-----------------------------------------------------------------------------------------|


[MAIN THEME I] (Am)

e|-12-11-10-9----13-12-11-12-11-10-9----9-10-11-12-----------------------------------------|
B|------------13---------------------13----------------------------------------------------|
G|-----------------------------------------------------------------------------------------|
D|-----------------------------------------------------------------------------------------|
A|-----------------------------------------------------------------------------------------|
E|-----------------------------------------------------------------------------------------|


[OUTRO]

e|-----------------------------------------------------------------------------------------|
B|-----------------------------------------------------------------------------------------|
G|------------------------------------------------6-7-8-9--10-9-8-9-10-9-8-9---------------|
D|-------9-10-11-12-11-10-9--10-9-8-7--6-7-8-9-10------------------------------------------|
A|-12-13-----------------------------------------------------------------------------------|
E|-----------------------------------------------------------------------------------------|


e|-----------------------------------------------------------------------------------------|
B|-----------------------------------------------------------------------------------------|
G|------------------------------------------------6-7-8-9--10-9-8-9-10-11-12-13------------|
D|-------9-10-11-12-11-10-9--10-9-8-7--6-7-8-9-10------------------------------------------|
A|-12-13-----------------------------------------------------------------------------------|
E|-----------------------------------------------------------------------------------------|


e|-----------------------------------------------------------------------------------------|
B|-----------------------------------------------------------------------------------------|
G|-14-13-12-11--12-11-10-9--10-9-8-7-------------------------------------------------------|
D|-----------------------------------11-10-9-8---------------------------------------------|
A|---------------------------------------------12-11-10-9--10-9-8-7--8-7-6-5--6-5-4-3------|
E|-----------------------------------------------------------------------------------------|


e|-----------------------------------------------------------------------------------------|
B|-----------------------------------------------------------------------------------------|
G|-----------------------------------------------------------------------------------------|
D|---------------------------------------------------------------3-4-5-6-------------------|
A|------------------------------------3-4-5-6-7--8-7-6-7-8-7-6-7---------------------------|
E|-5-6-5-4-5-6-5-4-5-6-5-4-5--4-5-6-7------------------------------------------------------|


e|--------------------------------------------------------------------------------17-------|
B|----------------------------------------------------------------------------17-----------|
G|------------------------------------------------------------5-6-7-8-9---s14--------------|
D|-7-6-5-4--------------------------------------------6-7-8-9------------------------------|
A|---------7-6-5-4---------------------------7-8-9-10--------------------------------7-----|
E|------------------7-6-5-4-5-6-7--8-9-10-11---------------------------------------------5-|



************************************

| h  Hammer-on
| p  Pull-off
| s  Slide

************************************
 
 
Nikolai Rimsky-korsakov - Flight Of The Bumblebee :: indexed at Ultimate Guitar.
Flight Of The Bumblebee tabs @ 911Tabs

Quick tip, so you can enjoy Flight Of The Bumblebee even more:

If you don't really know how to deal with "Absus4" chord and his equally confusing brothers, just put the mouse cursor over them and you will be shown a helpful chord diagram.

Show us your talent, perform Flight Of The Bumblebee!

Here you can post a video or audio performance. Tell me more ...
Where can we find your performance? Tell me more ...
Your comment:
Please, log in to post your performance.