Artists by letter: A B C D E F G H I J K L M N O P Q R S T U V W X Y Z 0-9

 
Thats Just Life
Hello, i am not aware of Memphis May Fire tuning, i tabbed this song with my standard guitar even tho im 
pretty sure the tuning is incorrect. I'll translate the note when i'll have the correct tuning. 
For now notes are correct with a guitar tuned in standard ( EADGBE) .

h = hammer-on

Riff 1 (1)

e|---------------|
B|---------------|
G|---------------|
D|--------6-4----|
A|------------6--|
E|0-4h6h7-------4|

Riff 2 (2)

e|------------------------------|
B|------------------------------|
G|----------8-----11-9-8-6-8-8--|
D|------------6----------------6|
A|------2h4---------------------|
E|0-4h6-------------------------|

Riff 3 (3)

e|-------------|
B|-------------|
G|-------------|
D|------8-6----|
A|----------6--|
E|2-6-7-------4|

Riff 4 (4)

e|---------------|
B|---------------|
G|---------------|
D|---------------|
A|---------------|
E|2-2-2-7-7-6-4--|

[Intro]

G#m E
Riff 1

G#m E
Riff 2

G#m E
Riff 3

G#m E
Riff 4


[Verse]

G#m   E           (1)
I know how it feels to feel alone
G#m      E             (2)
The king of my own fears, I never leave the throne
G#m          E        (3)
And I've been searching for a place inside my soul
G#m         E     (4)
Where all my demons can't find me when I go

e|------------------------------------------------------------7*-------|\
B|----------------------------------------------------------7*---7*----| \
G|--------------------------------------------------------7*-------7*--|  \ The 7* mean harmonic and they are
D|----4-----4------4------4------4------4-----4------4--7*-------------|  / wrong since tuning is incorrect.
A|--6-----6------2------2------2------4-----4------6-------------------| /
E|4-----4------0------0------0------2-----2------4---------------------|/


** = harmonics at end of ^ riff

[Pre-Chorus]

G#m   E             F#      G#m  **
"Pull it together," they say
G#m  E       F#             A#
So I keep hoping for better days


[Chorus]

E               F#                G#m
I'd be lying if I said that I was fine
E                           F#            G#m
Cause I feel pain sometimes that I cannot describe
E                     F#                  G#m
So do I raise my fist and curse up at the sky or do I
E                          F#          G#m
Close my eyes and realize, that's just life?


[Verse]

G#m    E            (1)
I know how it feels to lose control
G#m      E                (2)
The weight inside myself is not always my own
G#m           E         (3)
And I am broken, where I'll end up I don't know
G#m          E      (4)
But maybe that's the point, so I trust in you alone


[Chorus]

E               F#                G#m
I'd be lying if I said that I was fine
E                           F#            G#m
Cause I feel pain sometimes that I cannot describe
E                     F#                  G#m
So do I raise my fist and curse up at the sky or do I
E                          F#          G#m
Close my eyes and realize, that's just life?

e|--11--2--4--7|\             e|--11--2--4--6|\ 
B|-------------| \            B|-------------| \
G|-------------|  \ Tapping   G|-------------|  \ Tapping
D|-------------|  /           D|-------------|  /
A|-------------| /            A|-------------| /
E|-------------|/             E|-------------|/


[Bridge]

G#m
I'm holding onto hope as I turn the page
And I'm praying there is peace to be found in the pain
Tell me that tomorrow won't be the same
And tell me that this is just a season and my story doesn't end this way


[Chorus]

E               F#                G#m
I'd be lying if I said that I was fine
E                           F#            G#m
Cause I feel pain sometimes that I cannot describe
E                     F#                  G#m
So do I raise my fist and curse up at the sky or do I
E                          F#          G#m
Close my eyes and realize, that's just life?
E                 F#          G#m
That's just life, that's just life?
 
 
Memphis May Fire - Thats Just Life :: indexed at Ultimate Guitar.
Thats Just Life tabs @ 911Tabs
People who played Memphis May Fire - Thats Just Life also played these songs by Memphis May Fire:
Miles Away Chords, No Ordinary Love Chords, Speechless Chords, Miles Away Tab, Miles Away Chords, Cowbells Makin A Comeback Tab

Quick tip, so you can enjoy Thats Just Life even more:

If you spend just 10 seconds to register, you will be able to comment on all the chords and tabs and rate them. You will as well be able to comment on videos of your fellow guitarists and give them ratings from 1 to 5 ... And - of course - you can share your own videos with them and see what they think of you. :)
Click here to join us!

Show us your talent, perform Thats Just Life!

Here you can post a video or audio performance. Tell me more ...
Where can we find your performance? Tell me more ...
Your comment:
Please, log in to post your performance.