Artists by letter: A B C D E F G H I J K L M N O P Q R S T U V W X Y Z 0-9

 
El Condor Pasa Tab
El condor pasa:
intro:
e|--5---3--------------------5---3---5-3-0-0---------5----8----5-------------|
B|----------3-4-5----------------------------3-4-5---------------------------|
G|---------------------------------------------------------------------------|
D|---------------------------------------------------------------------------|
A|---------------------------------------------------------------------------|
E|---------------------------------------------------------------------------|

e|---------------------------------------------------------------------------|
B|-------------------3--5----------------------------------------------------|
G|----2-1-2-4-5-4-5----------------------------------------------------------|
D|-2-------------------------------------------------------------------------|
A|---------------------------------------------------------------------------|
E|---------------------------------------------------------------------------|
  I'd rather be a sparrow than a snail
verse 1:
   (put a C )
e|--------------------------------------------------------------------------|
B|--------1----------1----------1----------1----------1----------1----------|
G|--------------------------------------------------------------------------|
D---------2----------2----------2----------2----------2----------2----------|
A|-3-----------------------3---------------------3--------------------------|
E|--------------3--------------------3----------------------3---------------|
 Yes I would, if I could, I surely would
verse 2:
 (put an Am)
e|--------------------------------------------------------------------------|
B|------1-------------1---------------1-------------1------------------1----|
G|------2-------------2---------------2-------------2------------------2----|
D|------2-------------2---------------2-------------2------------------2----|
A|-0-----------------------------0-------------------------------0----------|
E|---------------0-----------------------------0----------------------------|
  Mmmmmmm Mmmmmm I'd rather be a hammer than a nail

repeat verse 1:
Yes I would, if I only could, I surely would

repeat verse 2:
Mmmmmmmmm Mmmmmmmm

chorus:
(put a F)
e|--1------1-------1----1------1------1-------1------1-------1-------1-------|
B|--1------1-------1----1------1------1-------1------1-------1-------1-------|
G|--2------2-------2----2------2------2-------2------2-------2-------2-------|
D|3-------------3-------------3------------3--------------3------------------|
A|-------3-------------3------------3-------------3--------------3-----------|
E|---------------------------------------------------------------------------|

Away, I'd rather sail away Like a swan that's here and gone
A man grows older every day It gives the world
Its saddest sound Its saddest sound.

verse 2:
Mmmmmmmm Mmmmmmmmm
I'd rather be a forest than a street

verse 1:
Yes I would, if I could, I surely would.

verse 2:
I'd rather feel the earth beneath my feet

verse 1:
Yes I would, if I only could, I surely would

flute solo:
 F/C
 C/G
 Am/Em(fade)
                                     fpdlg

 
 
Simon And Garfunkel - El Condor Pasa Tab :: indexed at Ultimate Guitar.
El Condor Pasa tabs @ 911Tabs

Quick tip, so you can enjoy El Condor Pasa Tab even more:

YourChords.com Guitar Chords and Tabs Archive is currently indexing over 240'000 songs from 21'000+ different artists. And new chords just keep on coming in, so you will surely never run out of them.

Show us your talent, perform El Condor Pasa Tab!

Here you can post a video or audio performance. Tell me more ...
Where can we find your performance? Tell me more ...
Your comment:
Please, log in to post your performance.