Artists by letter: A B C D E F G H I J K L M N O P Q R S T U V W X Y Z 0-9

 
Americana - Deans Theme
 [Main Theme]

e|-------------------------------------------------------|
B|---------------11--------------------------------------|
G|--8----11---------8---------8--------8-----------------|
D|--8---------------8------11-8---8----------------------|
A|--9---------------8---------6--------------------------|
E|-------------------------------------------------------|

e|-------------------9----------------------6------------|
B|-------------11-------------12--11---------------------|
G|--8----11----------11-----------10--------8------------|
D|--8----------------9------------8---------6------------|
A|--9----------------------------------------------------|
E|-------------------------------------------------------|

e|-------------------------------------------------------|
B|---------------11--------------------------------------|
G|--8----11---------8---------8--------8-----------------|
D|--8---------------8------11-8---8----------------------|
A|--9---------------8---------6--------------------------|
E|-------------------------------------------------------|

e|-------------------11---9------------------11--------------|
B|--------------11---------------9---11---------11-----------|
G|-----8---11--------11--------------10----------------------|
D|--8--8-------------9---------------8----------13---13------|
A|-----9----------------------------------------11--------15-|
E|-----------------------------------------------------------|

 [Bridge]

e|-------------------------------------------------------|   
B|-------------------------------------------------------|
G|-(0)-----------8------------8-----------(8)------------|
D|--8----------------------------------------------------|
A|---------------11-----------10-----------11------------|
E|--6------------8------------6------------9-------------|

 [Main Theme]

e|-------------------------------------------------------|
B|-----------------11------------------------------------|
G|--8---8----11-----------8---------------8--------------|
D|----8-8-----------------8--------11-----8--------------|
A|------9-----------------8---------------6--------------|
E|-------------------------------------------------------|

e|-------------------9----------------------6------------|
B|-------------11-------------12--11---------------------|
G|--8----11----------11-----------10--------8------------|
D|--8----------------9------------8---------6------------|
A|--9----------------------------------------------------|
E|-------------------------------------------------------|

e|-------------------------------------------------------|
B|---------------11--------------------------------------|
G|--8----11---------8---------8--------8-----------------|
D|--8---------------8------11-8---8----------------------|
A|--9---------------8---------6--------------------------|
E|-------------------------------------------------------|

e|-------------------11---9------------------11--------------|
B|--------------11---------------9---11---------11-----------|
G|-----8---11--------11--------------10----------------------|
D|--8--8-------------9---------------8----------13---13------|
A|-----9----------------------------------------11--------15-|
E|-----------------------------------------------------------|

 [Bridge]

e|-------------------------------------------------------|   
B|-------------------------------------------------------|
G|-(0)-----------8------------8-----------(8)------------|
D|--8----------------------------------------------------|
A|---------------11-----------10-----------11------------|
E|--6------------8------------6------------9-------------|

 [Outro]

e|-------------------------------------------------------|
B|-----------------11------------------------------------|
G|--8---8----11-----------8---------------8--------------|
D|----8-8-----------------8--------11-----8--------------|
A|------9-----------------8---------------6--------------|
E|-------------------------------------------------------|



************************************

| (n)  Ghost note

************************************

 
 
Jay Gruska - Americana - Deans Theme :: indexed at Ultimate Guitar.
Americana - Deans Theme tabs @ 911Tabs

Quick tip, so you can enjoy Americana - Deans Theme even more:

After the registration (which takes just 10 seconds, remember?) you will be able to use your profile - your very own piece of YourChords.com.

Show us your talent, perform Americana - Deans Theme!

Here you can post a video or audio performance. Tell me more ...
Where can we find your performance? Tell me more ...
Your comment:
Please, log in to post your performance.