Artists by letter: A B C D E F G H I J K L M N O P Q R S T U V W X Y Z 0-9

 
Where The Light Takes You
Where the Light Takes You
From the album Strong Feelings

[INTRO]

E B A x3

[VERSE 1]

E
When the light is in your face
                      A
As the sun is coming down
                         E
When you're standing in one place
                    A
As the world goes 'round

[PRE-CHORUS]

A                         E
Any other lover would be pained to discover
    C#m                         F#m
You underneath the cover of a story that was told
A                          E
Anyone worth holding your heart
               B
Would let you go

[CHORUS]

          F#m    A
Where the light takes you
          F#m       A
Where the new day breaks you
          F#m    A
Where the music makes you
          D A
What you are

[INTERLUDE]

E B A x3

[VERSE 2]

E
I wish you could've held on
                    A
And waited for the day
                       E
The light will always find you
                 A
It's never far away

[PRE-CHORUS]

A                         E
Any other lover would be pained to discover
    C#m                         F#m
You underneath the cover of a story that was told
A                          E
Anyone worth holding your heart
               B
Would let you go


[CHORUS]

          F#m    A
Where the light takes you
          F#m       A
Where the new day breaks you
          F#m    A
Where the music makes you
          D B
What you are

[BRIDGE]

        A
And I know 
        C       E
it has taken a long time
          B                          
"It's a choice," 
        D             F#m
said a voice that was not mine

N.C.

[OUTRO] x4

   F#m                   F#m/F                 F#m/E                 B7/D#                D                  
e|----9------9-------9-|----9------9-------9-|----9------9-------9-|---7------7------7-|----5-----5------5-|
B|------10-----10------|------10-----10------|------10-----10------|-----10-----10-----|------7-----7------|
G|-11------11-----11---|-10------10-----10---|--9-------9------9---|--8------8-----8---|--7------7-----7---|
D|---------------------|---------------------|---------------------|-------------------|-------------------|
A|-(9)-----------------|-(8)-----------------|-(7)-----------------|-(6)---------------|-(5)---------------|
E|---------------------|---------------------|---------------------|-------------------|-------------------|

   F#/C#               F#/C#    F#/B      F#/A    F#         Esus4               E
e|---5-----5------5--|----------5-------|----------5-------|----5-----5-----5-|----4------4-----4-|
B|-----7-----7-------|----6---6---6---6-|----5---5---5---5-|------5-----5-----|------5------5-----|
G|--6----6-----6-----|--6---6-------6---|--6---6-------6---|--6-----6-----6---|--4------4-----4---|
D|-------------------|------------------|------------------|------------------|-------------------|
A|-(4)---------------|-(4)--------------|------------------|------------------|-------------------|
E|------------(5)(7)-|----------(7)-----|-(5)-----(2)------|-(0)--------------|-(0)---------------|

E
 
 
Doug Paisley - Where The Light Takes You :: indexed at Ultimate Guitar.
Where The Light Takes You tabs @ 911Tabs
People who played Doug Paisley - Where The Light Takes You also played these songs by Doug Paisley:
End Of The Day Tab, Wide Open Plain Chords, End Of The Day Tab, No One But You Tab, Come Here My Love Tab, Always Say Goodbye Chords

Quick tip, so you can enjoy Where The Light Takes You even more:

You might want to transpose the song if it is too high or too low for you to sing. Just click the desired option while playing a song and all the chords will automatically be transponded into a new key.

Show us your talent, perform Where The Light Takes You!

Here you can post a video or audio performance. Tell me more ...
Where can we find your performance? Tell me more ...
Your comment:
Please, log in to post your performance.