Artists by letter: A B C D E F G H I J K L M N O P Q R S T U V W X Y Z 0-9

 
Because I Love You
Because I Love You
From the album Strong Feelings

[Intro]
   C                                                           F         G         C
e|-----------------------------------------------------------------------------------|
B|-----------------------------------------------------------------------------------|
G|-0------------------------0--------------------------------------------------------|
D|---2-2h3-2-0----0h2---------3-3--2h3-2-0---0h2---0h2-3-2-0-------------------------|
A|-------------3---------------------------3-----------------3---------------0-1-2-3-|
E|--------------------3----------------------------------------1---1-1-2-3-----------|

[Verse 1]
C
This time, I'm writing to you in a song
                                                                     F
'cause songs can travel over walls, across great spaces and through time
          G
A little song
            C
To say, "I love you"

[Verse 2]
C
You know I know you've tried to reach me in my dreams
                                               F
But we could only speak in broken lines of poetry
           G
It was so easy
           C
Because I love you

[Chorus]
                 Am Am/G Am Am/C Am
Love is just a dream
              F
A beautiful dream
                         Am Am/G Am Am/C Am
And time has robbed us blind
                       G     G7
To all these precious moments

[Interlude]
   C                                                           F         G              C
e|----------------------------------------------------------------------------------------|
B|----------------------------------------------------------------------------------------|
G|-0------------------------0-------------------------------------------------------------|
D|---2-2h3-2-0----0h2---------3-3--2h3-2-0---0h2---0h2-3-2-0----------------1-2-3---------|
A|-------------3---------------------------3-----------------3----------------------1-2-3-|
E|--------------------3----------------------------------------1---1-1-2-3----------------|

[Chorus]
                 Am Am/G Am Am/C Am
Love is just a dream
              F
A beautiful dream
                         Am Am/G Am Am/C Am
And time has robbed us blind
                       G     G7
To all these precious moments

[Verse 3]
C
Golden rings upon your fingers, shiny things that linger
                          F
I've had to let them all go
              G
But still I know
        C
That I love you


************************************

| h  Hammer-on

************************************
 
 
Doug Paisley - Because I Love You :: indexed at Ultimate Guitar.
Because I Love You tabs @ 911Tabs
People who played Doug Paisley - Because I Love You also played these songs by Doug Paisley:
End Of The Day Tab, Wide Open Plain Chords, End Of The Day Tab, No One But You Tab, Come Here My Love Tab, Always Say Goodbye Chords

Quick tip, so you can enjoy Because I Love You even more:

YourChords.com Guitar Chords and Tabs Archive is currently indexing over 240'000 songs from 21'000+ different artists. And new chords just keep on coming in, so you will surely never run out of them.

Show us your talent, perform Because I Love You!

Here you can post a video or audio performance. Tell me more ...
Where can we find your performance? Tell me more ...
Your comment:
Please, log in to post your performance.