Artists by letter: A B C D E F G H I J K L M N O P Q R S T U V W X Y Z 0-9

 
Mateo Singko
11042017 21:29
JK a.k.a jobski

Dong Abay: Mateo Singko [Flipino]

Standard Tuning

Bm    x 2 4 4 3 2
Em    0 2 2 0 0 0
C     x 3 2 0 1 0
D     x x 0 2 3 2
Cadd9 x 3 2 0 3 3
Bm#5  x 2 0 0 3 3
G     3 2 0 0 3 3
F#m#5 2 0 0 2 3 2

[Verse 1]
Bm              Em
Nakakadena si Amor
     C                    D
Nakahawla ang dama de noche
Bm                     Em
Walang trabaho bagong layang si Ador
         C             D
reklamador.. kundi ang magbilang ng poste

[Chorus]
Cadd9   Bm#5         G    F#m#5
Mahirap maging mahirap
Cadd9   Bm#5         G    F#m#5
Mahirap maging mahirap
Cadd9   Bm#5         G
Mahirap maging mahirap..
F#m#5        C
maging mahirap..
Bm#5         D
maging mahirap
 
[Verse 2]
Bm                    Em
Hahagulgol and batang kulang sa sustansya
C                                D
Malutong na magmumura ang bungangerang ina
Bm                 Em
Uumbagan siya ng asawang sugarol
C                        D
Na wala naman dalang delihensya

[Chorus]
Cadd9   Bm#5         G    F#m#5
Mahirap maging mahirap
Cadd9   Bm#5         G    F#m#5
Mahirap maging mahirap
Cadd9   Bm#5         G
Mahirap maging mahirap..
F#m#5        C
maging mahirap..
Bm#5         D
maging mahirap

[Bridge]
Bm Em C D (2x)

[Solo]
E|----------------------------|--------------------|----------------------------|
B|-------3--3/5--3------------|--------------------|----------------------------|
G|--2/4-------------4p2--2h4~~|--4p2--0--2--2/4\2~~|--0h2--2h4--2--0--2--2h4p2~~|
D|----------------------------|--------------------|----------------------------|
A|----------------------------|--------------------|----------------------------|
E|----------------------------|--------------------|----------------------------|

E|-----------2--3--3p2-----2~~|-----------2--3--2h3p2------------------|
B|-----3--5-------------5-----|-----3--5---------------5--3h5p3-----3~~|
G|--4-------------------------|--4-------------------------------4-----|
D|----------------------------|----------------------------------------|
A|----------------------------|----------------------------------------|
E|----------------------------|----------------------------------------|

E|-----------2--3--5--5/7--5--3--2h3p2-------------------5-------5-------5-------5-------5---------|
B|-----3--5-----------------------------5--3-----3--5/7-----7b8-----7b8-----7b8-----7b8-----7\5\3~~|
G|--4-----------------------------------------4----------------------------------------------------|
D|-------------------------------------------------------------------------------------------------|
A|-------------------------------------------------------------------------------------------------|
E|-------------------------------------------------------------------------------------------------|

[Chorus]
Cadd9   Bm#5         G    F#m#5
Mahirap maging mahirap
Cadd9   Bm#5         G    F#m#5
Mahirap maging mahirap
Cadd9   Bm#5         G
Mahirap maging mahirap..
F#m#5        C
maging mahirap..
Bm#5         D
maging mahirap

[Outro]
   C              G        
Sa ngalan ng mga ama at ina
  C             G
Kasama ang mga anak nila
C                G
Espirito ng mga santo at santa
C                G
Espirito ng mga santo at santa
C                G
Espirito ng mga santo at santa (Espirito ng mga santo at santa)
C                G
Espirito ng mga santo at santa (Espirito ng mga santo at santa)
C                G
Espirito ng mga santo at santa (Espirito ng mga santo at santa)
C                G
Espirito ng mga santo at santa (Espirito ng mga santo at santa)
C                G
Espirito ng mga santo at santa (Espirito ng mga santo at santa) (mahirap maging mahirap)
C                G
Espirito ng mga santo at santa (Espirito ng mga santo at santa) (mahirap maging mahirap)
C                G
Espirito ng mga santo at santa (Espirito ng mga santo at santa) (mahirap maging mahirap)
C                G
Espirito ng mga santo at santa (Espirito ng mga santo at santa) (mahirap maging mahirap)



************************************

| /  Slide up
| h  Hammer-on
| p  Pull-off
| \  Slide down
| ~  Sustain
| b  Bend
 

************************************
 
 
Dong Abay - Mateo Singko :: indexed at Ultimate Guitar.
Mateo Singko tabs @ 911Tabs
People who played Dong Abay - Mateo Singko also played these songs by Dong Abay:
Perpekto Chords, Dyad Chords, Tuyo Chords, Mateo Singko Chords, Ama Namin Acoustic Chords, Solb Chords

Quick tip, so you can enjoy Mateo Singko even more:

If you don't really know how to deal with "Absus4" chord and his equally confusing brothers, just put the mouse cursor over them and you will be shown a helpful chord diagram.

Show us your talent, perform Mateo Singko!

Here you can post a video or audio performance. Tell me more ...
Where can we find your performance? Tell me more ...
Your comment:
Please, log in to post your performance.