Artists by letter: A B C D E F G H I J K L M N O P Q R S T U V W X Y Z 0-9

 
Four Leaf Clover
Artist: Christian Hudson
Song: Four Leaf Clover
Part: Whole Song


Chords Used: C F G Em Am


[Intro]
        C      F         G      C          Em    Am        F      C                           
e|-------------5----------------------------------------------5-----------------------------|
B|---------5----------------3---5-------5-----0---1---------------5-------------------------|  x1
G|------------------------------------------------------------------------------------------|
D|-------------3-----------------------------------------3----------------------------------|
A|-----3------------------------3-------3--2------0---------------3-------------------------|
E|----------------------3-------------------------------------------------------------------|

[Verse]
        C      F         G      C          C     F          G     C
e|-------------5---------------------------------5------------------------------------------|
B|---------5----------------3---5------------5----------------3---5-------------------------| x4
G|------------------------------------------------------------------------------------------|
D|-------------3---------------------------------3------------------------------------------|
A|-----3------------------------3---------3-----------------------3-------------------------|
E|----------------------3---------------------------------3---------------------------------|

                                      "Woah, honey. Let's feel this way everyday"
        C      F         G      C          Em    Am        F      C
e|-------------5----------------------------------------------5-----------------------------|
B|---------5----------------3---5-------5-----0---1---------------5-------------------------|
G|------------------------------------------------------------------------------------------|
D|-------------3-----------------------------------------3----------------------------------|
A|-----3------------------------3-------3--2------0---------------3-------------------------|
E|----------------------3-------------------------------------------------------------------|

[Chorus]
        C      F         G      C          C     F          G     C
e|-------------5---------------------------------5------------------------------------------| x2
B|-------5--------------3-------5---------5---------------3-----5---------------------------| 
G|------------------------------------------------------------------------------------------|
D|-------------3---------------------------------3------------------------------------------|
A|-------3----------------------3---------3---------------------3---------------------------|
E|----------------------3---------------------------------3---------------------------------|
 
 
Christian Hudson - Four Leaf Clover :: indexed at Ultimate Guitar.
Four Leaf Clover tabs @ 911Tabs

Quick tip, so you can enjoy Four Leaf Clover even more:

If you don't really know how to deal with "Absus4" chord and his equally confusing brothers, just put the mouse cursor over them and you will be shown a helpful chord diagram.

Show us your talent, perform Four Leaf Clover!

Here you can post a video or audio performance. Tell me more ...
Where can we find your performance? Tell me more ...
Your comment:
Please, log in to post your performance.