Artists by letter: A B C D E F G H I J K L M N O P Q R S T U V W X Y Z 0-9

 
You Should Probably Leave Live
You Should Probably Leave
by Chris Stapleton
Live acoustic performance from the Nashville Musicians Corner (https://youtu.be/AbbiGgR1IDM)

Chords are slightly muted to get the percussion effect
A 2h4 on  D string is also added from time to time
Listen to the song for the rhythm and to get the strumming patterns 

Standard Tuning
E A D G B e

[Chords]
F#5   (244xxx)
A5    (x022xx)
D5    (x0023x)
E5    (022xxx)
D5*   (x577xx)
D5/C# (x477xx)
B5    (799xxx)
C#5   (x466xx)

[Intro]
F#5  A5  D5  A5 x2

[Verse]
F#5       A5    D5       A5                   F#5      A5     D5   A5
I know it ain’t all that late, but you should probably leave
F#5      A5      D5           A5                    F#5      A5     D5   A5
I recognize that look in your eyes, yeah you should probably leave

[Chorus]
E5           F#5      D5       A5                                 
Cause I know you, and you know me
    E5      F#5                D5    A5
And we both know where this is gonna lead
        E5         F#5        D5          A5                  F#5      A5     D5   A5
And you want me to say that I want you to stay, so you should probably leave
                F#m      A5     D5   A5
Yeah you should probably leave

[Verse]
F#5           A5              D5          A5                    F#5      A5     D5   A5
There’s still time for you to finish your wine, then you should probably leave
         F#5     A5      D5               A5                    F#5      A5     D5   A5
And it’s hard to resist, alright just one kiss, then you should probably leave

[Chorus]
E5           F#5      D5       A5                                
Cause I know you, and you know me
    E5      F#5                D5    A5
And we both know where this is gonna lead
        E5         F#5        D5          A5                  F#5      A5     D5   A5
And you want me to say that I want you to stay, so you should probably leave
                F#m      A5     D5   A5
Yeah you should probably leave

[Bridge]
       D5*          D5/C#             B5         D5/C# D5*     [Riff]
Like a devil on the shoulder you been whisperin’ in my ear
         D5*           D5/C#    B5           D5/C#       D5    C#5
And it’s gettin’ kinda hard for me to do the right thing here
        E
I wanna do the right thing baby

[Riff]
e|--------------------------|
B|--------------------------|
G|-----/7--7-7-7-------7----|
D|-----/7--7-7-7h9p7---7----|
A|-----/9--9-9-9-----9------|
E|--------------------------|

[Solo]
e|-------------------------------------------------------------------------------------------|
B|---------------------------------------------------------------------------3---------------|
G|--------------------------------------------------------------2---2--------2------2---2-2--|
D|--------------------------------------------------------------2---2-2h4p2--0------2---2-2--|
A|---------0-2--2h4v------2p0--2p0--4-4v----------2p0---2p0--0--0---0--------0------0---0-0--|
E|--0-1-2--------------------------------------------2p0-------------------------------------|

e|-------------------------------------------------------------------------------------------|
B|---------------------------------------------------------------------------3-3-3-----------|
G|--------------------------------------------------------------2-2-2-2-2----2-2-2--2-2-2-2--|
D|--2h4-2--------------------------------------------4-4-4------2-2-2-2-2----0-0-0--2-2-2-2--|
A|---------4------0-2h4-2--0-2h4-2--0----------------4-4-4------0-0-0-0-0----0-0-0--0-0-0-0--|
E|-----------0------------------------0h2p0----------2-2-2-----------------------------------|

[Verse]
    F#5         A5      D5  A5             F#5          A5     D5   A5                             
The sun on your skin at six am, and I been watchin’ you sleep
      F#5    A5                D5          A5                  F#5      A5     D5   A5
Honey I’m so afraid your gonna wake up and say that you should probably leave

[Outro]
E5           F#5      D5       A5                            
Cause I know you, and you know me
    E5      F#5                D5    A5
And we both know where this is gonna lead
  E5          F#5             A5       D5                  F#5      A5     D5   A5
I want you to stay but you’ll probably say that you should probably leave
                F#5      A5     D5   A5                             
Yeah you should probably leave
              F#5      A5     D5   A5                             
Oh you should probably leave
F#5      A5     D5   A5



************************************

| /  Slide up
| h  Hammer-on
| p  Pull-off
 

************************************
 
 
Chris Stapleton - You Should Probably Leave Live :: indexed at Ultimate Guitar.
You Should Probably Leave Live tabs @ 911Tabs

Quick tip, so you can enjoy You Should Probably Leave Live even more:

If you don't really know how to deal with "Absus4" chord and his equally confusing brothers, just put the mouse cursor over them and you will be shown a helpful chord diagram.

Show us your talent, perform You Should Probably Leave Live!

Here you can post a video or audio performance. Tell me more ...
Where can we find your performance? Tell me more ...
Your comment:
Please, log in to post your performance.