Artists by letter: A B C D E F G H I J K L M N O P Q R S T U V W X Y Z 0-9

 
La Ley De Plomo
Tuning is drop A

[RIFF 1] - 0:00 - 0:23
B|-----------------------------------------------------|
F#|----------------------------------------------------| 
D|-----------------------------------------------------|
A|-----------------------------------------------------|
E|-----------------------------------------------------|
A|--0-2-2-2-2-2--0-2-2-2-2-2--0-2-4-4-4-4--0-2-4-4-4-4-|
    . . . . . .  . . . . . .  . . . . . .  . . . . . .

[RIFF 2] - 0:24 - 1:26
B|----------------------------|
F#|---------------------------|
D|----------------------------|
A|----------------------------|
E|-0-2--2-0-2--2-0-2-4--0-2-4-|
A|-0-2--2-0-2--2-0-2-4--0-2-4-|
   . .  . . .  . . . .  . . .

[RIFF 3] - 1:27 - 1:39
B|-----------------------------------------------------|
F#|----------------------------------------------------| 
D|-----------------------------------------------------|
A|-----------------------------------------------------|
E|-----------------------------------------------------|
A|--0-2-2-2-2-2--0-2-2-2-2-2--0-2-4-4-4-4--0-2-4-4-4-4-|
    . . . . . .  . . . . . .  . . . . . .  . . . . . .

[RIFF 4] 
B|------------|
F#|-----------|
D|------------|
A|------------|
E|-0-2--2-0-2-| x3
A|-0-2--2-0-2-|

[RIFF 5]        1:49 - 2:43
B|----------------------------|
F#----------------------------|
D|----------------------------|
A|----------------------------|
E|-0-2--2-0-2--2-0-2-4--0-2-4-|
A|-0-2--2-0-2--2-0-2-4--0-2-4-|


************************************

| . - palm mute

************************************
 
 
Brujeria - La Ley De Plomo :: indexed at Ultimate Guitar.
La Ley De Plomo tabs @ 911Tabs
People who played Brujeria - La Ley De Plomo also played these songs by Brujeria:
Pito Wilson Tab, Brujerizmo Tab, Consejos Narcos Tab, Matando Gueros Tab, Division Del Norte Tab, La Ley De Plomo Tab

About the artist behind La Ley De Plomo:

Brujeria is an extreme metal band. Their name comes from a Spanish word meaning "witchcraft". Their Satanic, narcotic, and masked attitude have been their green-card to success, although they have recently performed live at locations across the United States and Latin America. The have been nominated at the Latin Grammy Awards for Best Rock Album in 2000.

Their songs, which are sung entirely in Spanish, are focused on Satanism, anti-Christianity, sex, immigration, narcotics smuggling, politics and also include lyrics about killing white people (despite having some white members in the band) so it is likely tongue in cheek.

Brujeria are admittedly a side-project of founding member and Asesino stalwart Dino Cazares, and has featured artists such as Billy Gould, Nicholas Barker, Raymond Herrera, Jeff Walker, and Shane Embury. They perform under pseudonyms and portray themselves as a Latino band consisting of drug lords, concealing their identities due to being wanted by the FBI. Their lineup has changed over time, however, and could be different at any point in time.

After 3 compilation albums released in 7 years, there's rumours about a fourth Brujería album scheduled for release sometime in 2008, but details are still unknown. In March the band release a new single called "Debilador", possibilly taken off from the next album.

Indexed at Wikipedia.

Show us your talent, perform La Ley De Plomo!

Here you can post a video or audio performance. Tell me more ...
Where can we find your performance? Tell me more ...
Your comment:
Please, log in to post your performance.