Artists by letter: A B C D E F G H I J K L M N O P Q R S T U V W X Y Z 0-9

 
Le Brio
----------------------------------------------------------------------------------------------------
                                     Big Soul - Le Brio 
----------------------------------------------------------------------------------------------------

Album : Big Soul (1995)
Tempo : 136
E-mail: [email protected]
Tabbed by: newg    (http://profile.ultimate-guitar.com/newg/)

See my guitar pro/tab for more

[Intro]
    E9(#9)(no5)
e|---------------|---------------|-------------------|
B|--8------------|--8-8----------|--8-8-8------------|
G|--7------------|--7-7----------|--7-7-7------------|
D|--6------------|--6-6----------|--6-6-6------------|
A|--7------------|--7-7----------|--7-7-7------------|
E|---------------|---------------|--------------12s--|

[Chorus 1,2,3]

GTR I :
e|----------------------------------------------------|
B|--------------5-----------------------5-------------|
G|--------------5-----------------------5-------------|
D|--------------5-----------------------5-------------|
A|--------------x-----------------------3-------------|
E|--3--5--5-----5-----x--5--x--5--5-----------5--x----| x8

GTR II :

e|----------------------------------------------------|
B|-----5--------5-----x--5--x--5--5-----5-----x--x----|
G|-----5--------5-----x--5--x--5--5-----5-----x--x----|
D|-----5--------5-----x--5--x--5--5-----5-----x--x----|
A|-----0--------0-----x--0--x--0--0-----3-----x--x----|
E|--3s-5--------5-----x--5--x--5--5-------------------| x8


[Verses]
    E9(#9)(no5)
e|----------------| 
B|--8-8-----------| 
G|--7-7-----------| 
D|--6-6-----------| 
A|--7-7-----------| 
E|----------------| x7              

|-----------------|
|--8-8------------|
|--7-7------------|
|--6-6------------|
|--7-7------------|
|------------12s--|

[Chorus 4]

[Chorus]

GTR I :
e|----------------------------------------------------|
B|--------------5-----------------------5-------------|
G|--------------5-----------------------5-------------|
D|--------------5-----------------------5-------------|
A|--------------x-----------------------3-------------|
E|--3--5--5-----5-----x--5--x--5--5-----------5--x----| x4


e|------------------------------------|
B|------------------------------------|
G|--3--5--5-5-5-5-5-5-5-5-5-5-5-5-5-5-|
D|--3--5--5-5-5-5-5-5-5-5-5-5-5-5-5-5-|
A|--x--0--0-0-0-0-0-0-0-0-0-0-0-0-0-0-|
E|------------------------------------| x2

e|--10s12--12-12-12-12-12-12-12-12-12-12-12-12-12-12-|
B|--11s13--12-12-12-12-12-12-12-12-12-12-12-12-12-12-|
G|--10s12--13-13-13-13-13-13-13-13-13-13-13-13-13-13-|
D|---------------------------------------------------|
A|---------------------------------------------------|
E|---------------------------------------------------|  x2

GTR II :

e|----------------------------------------------------|
B|-----5--------5-----x--5--x--5--5-----5-----x--x----|
G|-----5--------5-----x--5--x--5--5-----5-----x--x----|
D|-----5--------5-----x--5--x--5--5-----5-----x--x----|
A|-----0--------0-----x--0--x--0--0-----3-----x--x----|
E|--3s-5--------5-----x--5--x--5--5-------------------| x4

e|---------------------------------------------------|
B|--11s13--13-13-13-13-13-13-13-13-13-13-13-13-13-13-|
G|--10s12--12-12-12-12-12-12-12-12-12-12-12-12-12-12-|
D|--9s-11--11-11-11-11-11-11-11-11-11-11-11-11-11-11-| 
A|--10s12--12-12-12-12-12-12-12-12-12-12-12-12-12-12-|
E|---------------------------------------------------| x4


[Outro]
    E9(#9)(no5)
e|---------------|---------------|-------------------|
B|--8------------|--8-8----------|--8-8-8------------|
G|--7------------|--7-7----------|--7-7-7------------|
D|--6------------|--6-6----------|--6-6-6------------|
A|--7------------|--7-7----------|--7-7-7------------|
E|---------------|---------------|-------------------|


 
 
Big Soul - Le Brio :: indexed at Ultimate Guitar.
Le Brio tabs @ 911Tabs
People who played Big Soul - Le Brio also played these songs by Big Soul:
Sweet Thang Tab, Pick Up The Telephone Tab, Julene Tab, Burning Up The Freeway Tab, Love Crazy Tab, Lost My Girl Tab

Quick tip, so you can enjoy Le Brio even more:

YourChords.com Guitar Chords and Tabs Archive is currently indexing over 240'000 songs from 21'000+ different artists. And new chords just keep on coming in, so you will surely never run out of them.

Show us your talent, perform Le Brio!

Here you can post a video or audio performance. Tell me more ...
Where can we find your performance? Tell me more ...
Your comment:
Please, log in to post your performance.